Cifra Club

Aprenda

Once More Tab

AC/DC

Cifra: Principal (violão e guitarra)
Tom: G
--------xx--------------------------------xx------------------------|
--------xx--------------x-------x---------xx--------------x-------x-|
------5-xx-4-5-7------3-x------5x-------5-xx-4-5-7------3-x------5x-|
--5-5-5-xx-4-5-7-3-3--3-xx-3-3-5x---5-5-5-xx-4-5-7-3-3--3-xx-3-3-5x-|
--5-5-3-xx-2-3-5-3-3--1-xx-3-3-3x---5-5-3-xx-2-3-5-3-3--1-xx-3-3-3x-|
--3-3------------1-1-------1-1------3-3------------1-1-------1-1----|

--------xx--------------------------------xx------------------------|
--------xx--------------x-------x---------xx--------------x-------x-|
------5-xx-4-5-7------3-x------5x-------5-xx-4-5-7------3-x------5x-|
--5-5-5-xx-4-5-7-3-3--3-xx-3-3-5x---5-5-5-xx-4-5-7-3-3--3-xx-3-3-5x-|
--5-5-3-xx-2-3-5-3-3--1-xx-3-3-3x---5-5-3-xx-2-3-5-3-3--1-xx-3-3-3x-|
--3-3------------1-1-------1-1------3-3------------1-1-------1-1----|

---------------------------------------------------|
---------------------------------------------------|
---------------------------------------------------|
----3^^^^^^^^-3-3-3-3-3-3-3-3----------------------|
----3^^^^^^^^-3-3-3-3-3-3-3-3----------------------|
----1^^^^^^^^-1-1-1-1-1-1-1-1-1-1-1-1-1-1-1--------|
Colaboração e revisão:
  • Leonardo Lamesa
1.220 exibições
    • ½ Tom
    • A
    • Bb
    • B
    • C
    • Db
    • D
    • Eb
    • E
    • F
    • F#
    • G
    • Ab
  • Adicionar à lista

    0 comentários

    Mostrar mais comentários

    Conseguiu tocar?

    0 Tocaram 0 Ainda não

    Grave um vídeo tocando Once More Tab e mande pra gente!

    00:00 / 00:00
    outros vídeos desta música
    repetir qualidade Automático
    Outros vídeos desta música
    00:00 / 00:00
    Automático

    Cifra Club Pro

    Aproveite o Cifra Club com benefícios exclusivos e sem anúncios
    7 dias grátis
    Cifra Club Pro
    Aproveite o Cifra Club com benefícios exclusivos e sem anúncios
    7 dias grátis
    OK