Cifra Club

Aprenda

Play Ball

AC/DC

Cifra: Principal (violão e guitarra)
Tom: F
Intro:

E|-3----1----3---1----3----1----3-|
B|-3--1-1-1--3-1-1-1--3--1-1-1--3-|
G|-0--0-2-0--0-0-2-0--0--0-2-0--0-|
D|-0--2-3-2--0-2-3-2--0--2-3-2--0-|
A|-x--3-3-3--x-3-3-3--x--3-3-3--x-|
E|-3---------3--------3---------3-|

Verse 1: 

E|-3---1----------------------------|
B|-3-1-1----------3-5--6-5----------|
G|-0-0-2------0---------------------|  8x
D|-0-2-3--0h2---2-3-5--5-5----------|
A|-x-3-3----------------------------|
E|-3--------------------------------|

Refrão: 

E|-----------------------------------------|
B|-3-3-5-6-6-5-5-5--8-8-10-11-11-10-10-10--|
G|-0-0-0-0-0-0-0-0--9-9-9--9--9--9--9--9---|
D|-----------------------------------------| 8x
A|-----------------------------------------|
E|-----------------------------------------|

Overdub lick:

E|-----3---------------|
B|-6b8---6p3-----------|
G|-----------5b7r5p3---| 4x
D|-------------------5-|
A|---------------------|
E|---------------------|

Verso 2:

E|-3---1----------------------------|
B|-3-1-1----------5-6-5-------------|
G|-0-0-2-----(0)5-5-5-5-------------|  4x
D|-0-2-3--0h2---3-------------------|
A|-x-3-3----------------------------|
E|-3--------------------------------|

Chorus:
 
E|-----------------------------------------|
B|-3-3-5-6-6-5-5-5--8-8-10-11-11-10-10-10--|
G|-0-0-0-0-0-0-0-0--9-9-9--9--9--9--9--9---|
D|-----------------------------------------| 8x
A|-----------------------------------------|
E|-----------------------------------------|

Overdub lick(s):

E|-----3---------------|
B|-6b8---6p3-----------|
G|-----------5b7r5p3---| 4x
D|-------------------5-|
A|---------------------|
E|---------------------|

E|-----5----------------|
B|-8b10---8p5-----------|
G|------------7b9r7p5---| 4x
D|--------------------7-|
A|----------------------|
E|----------------------|

Solo :

E|-------------------5--------------------------------|
B|---5----------8b10---8p5----------------------------|
G|---5-----7-9-------------7b9r7p5----9b11-9b11-9b11--|
D|-7---5h7-------------------------5------------------|
A|----------------------------------------------------|
E|----------------------------------------------------|

E|------------x----15-----15--15----15----15b16-15b17-b17---|
B|------------x---15b17-15b17-15b17-15b17-------------------|
G|-9b11-9b12--x---------------------------------------------|
D|------------x---------------------------------------------|
A|------------x---------------------------------------------|
E|------------x---------------------------------------------|

Refrão: 

E|-----------------------------------------|
B|-3-3-5-6-6-5-5-5--8-8-10-11-11-10-10-10--|
G|-0-0-0-0-0-0-0-0--9-9-9--9--9--9--9--9---|
D|-----------------------------------------| 8x
A|-----------------------------------------|
E|-----------------------------------------|

Final:

E|-----3-------------------------------------------------------|
B|-6b8---6p3---------------------------------------------------|
G|-----------5b7r5p3-------------------------------------------|
D|-------------------5( or chord seen below on the last time )-|
A|-------------------------------------------------------------|
E|-------------------------------------------------------------|

E|-3--------------------|
B|-3--------------------|
G|-0--------------------|
D|-0--------------------|
A|-x--------------------|
E|-3--------------------|
Composição de Angus Young
Colaboração e revisão:
  • Luiz Barni
  • I :)
3.660 exibições
    • ½ Tom
    • A
    • Bb
    • B
    • C
    • Db
    • D
    • Eb
    • E
    • F
    • F#
    • G
    • Ab
  • Adicionar à lista

    0 comentários

    Mostrar mais comentários

    Conseguiu tocar?

    3 Tocaram 0 Ainda não

    Grave um vídeo tocando Play Ball e mande pra gente!

    00:00 / 00:00
    outros vídeos desta música
    repetir qualidade Automático
    Outros vídeos desta música
    00:00 / 00:00
    Automático

    Cifra Club Pro

    Aproveite o Cifra Club com benefícios exclusivos e sem anúncios
    7 dias grátis
    Cifra Club Pro
    Aproveite o Cifra Club com benefícios exclusivos e sem anúncios
    7 dias grátis
    OK