Cifra Club

Aprenda

Rock N' Roll Train

AC/DC

Cifra: Principal (violão e guitarra)
Tom: D
Solo 1 - Parte 1 de 3
E|------------------------------------------------------|
B|---------------------------------------------------5b-|
G|---7b9---5---5----------5--7b9--7b9--7b9r----7p5---5b-|
D|-\--------7----4--7---7--------------------------7----|
A|------------------------------------------------------|
E|------------------------------------------------------|

Solo 1 - Parte 2 de 3
E|----------------------------------------------------|
B|-------8---10---8--13b--13b--13b--------------------|
G|-7/8-9---9----9------------------14-----------------|
D|----------------------------------------------------|
A|----------------------------------------------------|
E|----------------------------------------------------|

Solo 1 - Parte 3 de 3
E|----------------------------------------------------|
B|-17b--17--17--17--19b21r19p17-----------------13----|
G|-17b--17--17--17--------------19--19-------------14~|
D|----------------------------------------------------|
A|----------------------------------------------------|
E|----------------------------------------------------|


Solo 2 - Parte 1 de 8
E|----------------------------------------------------|
B|-15b--13b-------------------------------------------|
G|----------14~--12b----------------------------------|
D|----------------------------------------------------|
A|----------------------------------------------------|
E|----------------------------------------------------|

Solo 2 - Parte 2 de 8
E|-----5----------------------------------------------|
B|-------5-8b10~--------------------------------------|
G|-7b9------------------------------------------------|
D|----------------------------------------------------|
A|----------------------------------------------------|
E|----------------------------------------------------|

Solo 2 - Parte 3 de 8
E|----------------------------------------------------|
B|----------------------------------------------------|
G|-17~------------------------------------------------|
D|----------------------------------------------------|
A|----------------------------------------------------|
E|----------------------------------------------------|

Solo 2 - Parte 4 de 8
E|----------------------------------------------------|
B|-15b16r15p13--15b--13-15-13b------------------------|
G|----------------------------------------------------|
D|----------------------------------------------------|
A|----------------------------------------------------|
E|----------------------------------------------------|

Solo 2 - Parte 5 de 8
E|--------10---------10-------------------------------|
B|--------10---------10-------------------------------|
G|-12b14------12b14-----------------------------------|
D|----------------------------------------------------|
A|----------------------------------------------------|
E|----------------------------------------------------|

Solo 2 - Parte 6 de 8
E|---------------------------------12b15--12-11-10-10------|
B|-10--13--13b15--b15-13b15--13p10--------------------13b--|
G|---------------------------------------------------------|
D|---------------------------------------------------------|
A|---------------------------------------------------------|
E|---------------------------------------------------------|

Solo 2 - Parte 7 de 8
E|---------------------------------12-----------------|
B|----10-----10~--13b--15p13-------13b15--------------|
G|11------11------------------14~---------------------|
D|----------------------------------------------------|
A|----------------------------------------------------|
E|----------------------------------------------------|

Solo 2 - Parte 8 de 8
E|----17----20b22-20-17-18b19r18-17-20b22-20-17-------|
B|-17----17-------------------------------------20b22~|
G|----------------------------------------------------|
D|----------------------------------------------------|
A|----------------------------------------------------|
E|----------------------------------------------------|

Pré solo
E|----------------------------------------------------|
B|-20b22--20b22---------------------------------------|
G|----------------------------------------------------|
D|----------------------------------------------------|
A|----------------------------------------------------|
E|----------------------------------------------------|

Solo 3 - Parte 1 de 7
E|-15------------15-----------------------------15b17-|
B|-15b17--15b17-----15b17r15-13-----13b-13b-13b-------|
G|-------------------------------14-------------------|
D|----------------------------------------------------|
A|----------------------------------------------------|
E|----------------------------------------------------|

Solo 3 - Parte 2 de 7
E|-15b17~--15-14-12h14----12-------12-----------------|
B|---------------------15----13h15----15-13b---15-----|
G|------------------------------------------------14~-|
D|----------------------------------------------------|
A|----------------------------------------------------|
E|----------------------------------------------------|

Solo 3 - Parte 3 de 7
E|----------------------------------------------------|
B|-17b20r17p16p15-----15----15--15p13-----------------|
G|-----------------17----17------------14-12----------|
D|----------------------------------------------------|
A|----------------------------------------------------|
E|----------------------------------------------------|

Solo 3 - Parte 4 de 7
E|-15-------------------------------------------------|
B|-15b17r1513-----------------------------------------|
G|--------------14------------------------------------|
D|----------------------------------------------------|
A|----------------------------------------------------|
E|----------------------------------------------------|
Solo 3 - Parte 5 de 7
E|-------15-------15----------15----------15----------15|
B|-15b17----15b17----15b17--------15b17--------15b17----|
G|------------------------------------------------------|
D|------------------------------------------------------|
A|------------------------------------------------------|
E|------------------------------------------------------|

Solo 3 - Parte 6 de 7
E|-15b17-15-14-15-14-12h14p12-----12------14b-12------------|
B|-----------------------------15-----13----------13-13-14--|
G|----------------------------------------------------------|
D|----------------------------------------------------------|
A|----------------------------------------------------------|
E|----------------------------------------------------------|

Solo 3 - Parte 7 de 7
E|----------------------------------------------------|
B|----------------------------------------------------|
G|-14~------------------------------------------------|
D|----------------------------------------------------|
A|----------------------------------------------------|
E|----------------------------------------------------|
Composição de Angus Young / Malcolm Young
Colaboração e revisão:
  • Fábio Marcilio
  • Vinícius Dias
  • George Arrabal
147.561 exibições
  • Simplificar cifra
    • ½ Tom
    • A
    • Bb
    • B
    • C
    • Db
    • D
    • Eb
    • E
    • F
    • F#
    • G
    • Ab
  • Adicionar à lista

    0 comentários

    Mostrar mais comentários

    Conseguiu tocar?

    14 Tocaram 0 Ainda não

    Grave um vídeo tocando Rock N' Roll Train e mande pra gente!

    00:00 / 00:00
    outros vídeos desta música
    repetir qualidade Automático
    Outros vídeos desta música
    00:00 / 00:00
    Automático
    Capítulos
    • Início
    • Tocando a música
    • Configuração dos Efeitos
    • Acordes do Riff 1
    • Tocando Introdução
    • Ensinando Introdução - Riff 1
    • Acordes do Riff 2
    • Acordes do Riff 3
    • Acordes da Guitarra 2 - Segunda Parte
    • Ensinando Primeira e Segunda Parte
    • Tocando Refrão
    • Tocando Solo 1
    • Ensinando Solo 1
    • Acordes do Riff 5
    • Tocando Solo 2
    • Ensinando Base do Solo - Riff 5
    • Ensinando Solo 2
    • Tocando Final
    • Ensinando Base do Solo 3
    • Ensinando Solo 3
    • Encerramento

    Cifra Club Pro

    Aproveite o Cifra Club com benefícios exclusivos e sem anúncios
    7 dias grátis
    Cifra Club Pro
    Aproveite o Cifra Club com benefícios exclusivos e sem anúncios
    7 dias grátis
    OK