Cifra Club

Aprenda

Send For The Man

AC/DC

Cifra: Principal (violão e guitarra)
Tom: D
E|--------------------------------------|
B|--------------------------------------|
G|-5-----------------5------------------|
D|-5-3/5--3/5-3/5-3--5-3/5--3/5-3/5-3---|
A|-3-3/5--3/5-3/5-3--5-3/5--3/5-3/5-3---|
E|---1/3--1/3-1/3-1----1/3--1/3-1/3-1---|

E|------------------|
B|------------------|
G|-7---5------------|
D|-7-5-5--3/5--3/5--|
A-5-5-3--3/5--3/5--|
E|---3----1/3-1/3---|
Colaboração e revisão:
  • Leonardo Lamesa
1.724 exibições
    • ½ Tom
    • A
    • Bb
    • B
    • C
    • Db
    • D
    • Eb
    • E
    • F
    • F#
    • G
    • Ab
  • Adicionar à lista

    0 comentários

    Mostrar mais comentários

    Conseguiu tocar?

    1 Tocaram 0 Ainda não

    Grave um vídeo tocando Send For The Man e mande pra gente!

    00:00 / 00:00
    outros vídeos desta música
    repetir qualidade Automático
    Outros vídeos desta música
    00:00 / 00:00
    Automático
    OK