Cifra Club

Shoot to Thrill

AC/DC

Cifra: Principal (violão e guitarra)
exibições 183.204
Tom: D
[Intro] A5

   A5
E|------------------------------------------|
B|------------------------------------------|
G|-2-----2----------------------------------|
D|-2-----2----------------------------------|
A|-0-4-5-0----------------------------------|
E|------------------------------------------|

[Opções]
[Ligados]

    A5
E|------------------------------------------|
B|------------------------------------------|
G|-2-----2----------------------------------|
D|-2-----2----------------------------------|
A|-0-4-5p0----------------------------------|
E|------------------------------------------|

[Usando Menos Cordas]

   A5
E|------------------------------------------|
B|------------------------------------------|
G|------------------------------------------|
D|-2-----2----------------------------------|
A|-0-4-5-0----------------------------------|
E|------------------------------------------|

[Antes da Primeira Parte]

   A5
E|------------------------------------------|
B|------------------------------------------|
G|-2-----2--2-2--2-2---2-2-2----------------|
D|-2-----2--2-2--2-2---2-2-2----------------|
A|-0-4-5-0--0-0--0-0---0-0-0----------------|
E|------------------------------------------|

[Primeira Parte]

   G5     D5      G5      D5      D5   A5
E|-3--------------3-------------------------|
B|-3------3-------3-------3-------3---------|
G|-0------2-------0-------2-------2----2-2--|
D|-0------0-------0-------0-------0----2-2--|
A|---0-0--0--0-0-----0-0--0--0-0--0--4-0-0--|
E|-3--------------3-------------------------|
   pm.     pm.     pm.     pm.

         G5   D5      G5        D5
All you women    who want a man of the street
A5            G5        D5      G5    D5
  But don't know which way you wanna turn
      A5     G5    D5      G5           D5
Just keep a-coming    and put your hand out to me
 A5         G5           D5          G5      D5  A5
Cos I'm the one who's gonna make you    burn

[Pré-Refrão]

   C5 G5 C5             C5 G5 C5
E|----3--------------------3----------------|
B|----3--------------------3----------------|
G|-5--0--5----5-5-5-----5--0--5-------------|
D|-5--0--5----5-5-5-----5--0--5-------------|
A|-3-----3----3-3-3-----3-----3-------------|
E|----3--------------------3----------------|

   D5 A5 D5 E7(9+)
E|------------------------------------------|
B|------------9-9---9-9---9-9---9-9---9-9-9-|
G|-7--2--7----8-8---8-8---8-8---8-8---8-8-8-|
D|-7--2--7----6-6---6-6---6-6---6-6---6-6-6-|
A|-5--0--5----7-7---7-7---7-7---7-7---7-7-7-|
E|----------0-----0-----0-----0-----0-------|

     C5    G5       C5              G5    C5
I'm gonna take you down, oh, down, down, down!
    D5        A5    D5
So don't you fool around
          E7(9+)
I'm gonna        pull it, pull it, pull the trigger

[Refrão]

   A5       G5       D5
E|----------3-------------------------------|
B|----------3--------3----------------------|
G|-2--------0--------2----------------------|
D|-2--------0--------0----------------------|
A|-0-----------------0----------------------|
E|----------3-------------------------------|

[Opções]
(Mais toques nos acordes - comentário sobre a dinâmica)

 A5       G5       D5
E|----------3-3-3-3-------------------------|
B|----------3-3-3-3--3-3-3-3-3--3--3-3-3----|
G|-2-2-2-2--0-0-0-0--2-2-2-2-2--2--2-2-2----|
D|-2-2-2-2--0-0-0-0--0-0-0-0-0--0--0-0-0----|
A|-0-0-0-0-----------0-0-0-0-0--0--0-0-0----|
E|----------3-3-3-3-------------------------|

[Final do Refrão]

E|------------------------------------------|
B|------------------------------------------|
G|-2--2--2----------------------------------|
D|-2--2--2----2-2-2-2-----------------------|
A|-0--0--0----5-3-4-0-----------------------|
E|------------------------------------------|

A5                  G5
   Shoot to thrill,    play to kill
D5
   Too many women with too many pills
A5                  G5
   Shoot to thrill,    play to kill
          D5
I got my gun at the ready, gonna fire at will
 A5
Yeah

[Repetição da Primeira Parte]

         G5    D5    G5    D5
I'm like evil,    I get under your skin
      A5     G5      D5        G5     D5
Just like a bomb that's ready to blow
     A5     G5   D5    G5     D5
Cos  I'm illegal,   I got everything
     A5       G5    D5         G5     D5
That all you women might need to know

A5   C5    G5       C5              G5    C5
I'm gonna take you down, oh, down, down, down!
    D5        A5    D5
So don't you fool around
          E7(9+)
I'm gonna        pull it, pull it, pull the trigger

[Repetição do Refrão]

A5                  G5
   Shoot to thrill,    play to kill
D5
   Too many women with too many pills
A5                  G5
   Shoot to thrill,    play to kill
          D5
I got my gun at the ready, gonna fire at will
        A5                      G/B
Cos I shoot to thrill, and I'm ready to kill
   D5
I can't get enough, I can't get the thrill
A5                   G5             D5
  I shoot to thrill,   play to kill,   yeah

Pull the trigger!

( E7(9+) )

                   E7(9+)
Pull it, pull it, pull it, pull the trigger!

   E7(9+)
E|------------------------------------------|
B|---9-9---9-9---9-9---9-9---9-9------------|
G|---8-8---8-8---8-8---8-8---8-8------------|
D|---6-6---6-6---6-6---6-6---6-6--\x--------|
A|---7-7---7-7---7-7---7-7---7-7--\x--------|
E|-0-----0-----0-----0-----0----------------|
                                 pick slash

[Solo 1]

(Base 4x)
 G5 D5 G5 D5      A5
E|-3-----3----------------------------------|
B|-3--3--3--3--3----2-2---------------------|
G|-0--2--0--2--2----2-2---------------------|
D|-0--0--0--0--0----0-0---------------------|
A|----0-----0-----4-------------------------|
E|-3-----3----------------------------------|

[Solo]

E|---------------------------------------------------|
B|--8~-7~-8~-7~--7--5--------8~-7~-8~-7~-7--5--------|
G|--7~-7~-7~-7~--7--5-----x--7~-7~-7~-7~-7--5-----x--|   (2x)
D|---------------------7--0--------------------7--0--|
A|---------------------------------------------------|
E|---------------------------------------------------|

E|-------15-------15-15------------------------------|
B|-15b17----15b17----15b17~-15b17r15p13----13--------|
G|--------------------------------------14-----------|
D|---------------------------------------------------|
A|---------------------------------------------------|
E|---------------------------------------------------|

E|-------15-------15--15----15\----------------------|
B|-15b17----15b17-----15b17-17\----------------------|
G|---------------------------------------------------|
D|---------------------------------------------------|
A|---------------------------------------------------|
E|---------------------------------------------------|

E|-------17-------17--------17----17----17---\-------|
B|-17b19----17b19----17b19~-17b19-17b19-17b19\-------|
G|---------------------------------------------------|
D|---------------------------------------------------|
A|---------------------------------------------------|
E|---------------------------------------------------|

E|---------------------------------------------------|
B|----12-12-----12-12-----12-12-----12-12-----12-12--|
G|----12-12-----12-12-----12-12-----12-12-----12-12--|
D|-14--------14--------14--------14--------14--------|
A|---------------------------------------------------|
E|---------------------------------------------------|

[Repetição do Refrão]

    A5                  G5
Oh!    Shoot to thrill,    play to kill
D5
   too many women with too many pills
A5                  G5
   Shoot to thrill,    play to kill
          D5
I got my gun at the ready, gonna fire at will
        A5                      G/B
Cos I shoot to thrill, and I'm ready to kill
       D5
And I can't get enough, and I can't get the thrill
      A5             G5             D5
Cos I    shoot to thrill, play it again!

     A
E|------------------------------------------|
B|-14-14-14-14-14-14-14-14------------------|
G|-14-14-14-14-14-14-14-14------------------|
D|-14-14-14-14-14-14-14-14------------------|
A|------------------------------------------|
E|------------------------------------------|

    G
E|------------------------------------------|
B|-15-15-15-15-15-15-15-15------------------|
G|-16-16-16-16-16-16-16-16------------------|
D|-17-17-17-17-17-17-17-17------------------|
A|------------------------------------------|
E|------------------------------------------|

    D
E|------------------------------------------|
B|-15-15-15-15-15-15-15-15------------------|
G|-14-14-14-14-14-14-14-14------------------|
D|-0--0--0--0--0--0--0--0-------------------|
A|------------------------------------------|
E|------------------------------------------|

   A                    G
E|------------------------------------------|
B|-2-2-2-2-2-2-2-2------3-3-3-3-3-3-3-3-----|
G|-2-2-2-2-2-2-2-2------4-4-4-4-4-4-4-4-----|  (2x)
D|-2-2-2-2-2-2-2-2------5-5-5-5-5-5-5-5-----|
A|------------------------------------------|
E|------------------------------------------|

   D             ↓ (passagem)
E|------------------------------------------|
B|-3-3-3-3-3-3-3-3-3-3-3-3-3-3-3-3----------|
G|-2-2-2-2-2-2-2-2-2-2-2-2-2-2-2-2----------|
D|-0-0-0-0-0-0-0-4-5-0-0-0-0-0-0-0----------|
A|------------------------------------------|
E|------------------------------------------|
   
   A                    G
E|------------------------------------------|
B|-5-5-5-5-5-5-5-5------3-3-3-3-3-3-3-3-----|
G|-6-6-6-6-6-6-6-6------4-4-4-4-4-4-4-4-----|
D|-7-7-7-7-7-7-7-7------5-5-5-5-5-5-5-5-----|
A|------------------------------------------|
E|------------------------------------------|

   D             ↓ (passagem)
E|------------------------------------------|
B|-3-3-3-3-3-3-3-3-3-3-3-3-3-3-3-3----------|
G|-2-2-2-2-2-2-2-2-2-2-2-2-2-2-2-2----------|
D|-0-0-0-0-0-0-0-4-5-0-0-0-0-0-0-0----------|
A|------------------------------------------|
E|------------------------------------------|

( A  G  D5 ) (8x)

Yeah!
Shoot you down, yeah
I’m gonna get you down on the bottom girl
Shoot you, I’m gonna shoot you
Oh yeah, yeah, yeah
I’m gonna shoot you down, yeah yeah
I’m gonna get you down, down down down down

[Solo 2]

E|---------------------------------------------------|
B|-10---~\-10---~\-10---~\-10---~\-------------------|
G|-12b14~\-12b14~\-12b14~\-12b14~\-------------------|
D|---------------------------------------------------|
A|---------------------------------------------------|
E|---------------------------------------------------|

E|---------------------------------------------------|
B|-17b¼----------------17b¼--------------------------|
G|-17b18---------------17b18-------------------------|  (2x)
D|-------19p17-19~-----------19p17-19~---------------|
A|---------------------------------------------------|
E|---------------------------------------------------|

E|-----------17--------17-17-17----17----17----17----|
B|--------17-----------17-17-17----17----17----17----|
G|-16b18--------16b18-----------16-16b18-16b18-16b18-|
D|---------------------------------------------------|
A|---------------------------------------------------|
E|---------------------------------------------------|

E|-17-------17-----17-----17-----17-----17-----------|
B|-17-------17-----17-----17-----17-----17-----------|
G|----16b18----b18----b18----b18----b18----b18-------|
D|---------------------------------------------------|
A|---------------------------------------------------|
E|---------------------------------------------------|

E|-17-------17-----17-----17-----17-----17-----------|
B|-17-------17-----17-----17-----17-----17-----------|
G|----16b17----b17----b17----b17----b17--------------|
D|---------------------------------------------------|
A|---------------------------------------------------|
E|---------------------------------------------------|

E|---------------------------------------------------|
B|-17-----17--17-17-17-------------------------------|
G|-17r16--14--16----14-------------------------------|
D|---------------16----------------------------------|
A|---------------------------------------------------|
E|---------------------------------------------------|

E|-17------------------------------------------------|
B|----17-20b22-20b22-20b22-20b22~--------------------|
G|---------------------------------------------------|
D|---------------------------------------------------|
A|---------------------------------------------------|
E|---------------------------------------------------|

E|-17----------17------------------------------------|
B|----17-20b22----17-20b22r20p17---------------------|
G|---------------------------------------------------|
D|---------------------------------------------------|
A|---------------------------------------------------|
E|---------------------------------------------------|

E|---------------------------------------------------|
B|---------20---20---20---20-------------------------|
G|-19b21--b21--b21--b21--b21r19----------------------|
D|---------------------------------------------------|
A|---------------------------------------------------|
E|---------------------------------------------------|

E|----------17---------------------------------------|
B|----20b22----17----20b22-20b22-20b22-20b22~\-------|
G|-17------------------------------------------------|
D|---------------------------------------------------|
A|---------------------------------------------------|
E|---------------------------------------------------|

E|---------------------------------------------------|
B|----------5-7-5-8----------------------------------|
G|----------5-7-5-7b9--------------------------------|
D|-7~-7~-7~------------------------------------------|
A|---------------------------------------------------|
E|---------------------------------------------------|

Final do Solo: Improvisação

Penta Blues: Am

E|-------------------------5-------------------------|
B|---------------------5-8---8-5---------------------|
G|---------------5-7-8-----------8-7-5---------------|
D|-----------5-7-----------------------7-5-----------|
A|-----5-6-7-------------------------------7-6-5-----|
E|-5-8-------------------------------------------8-5-|

E|---------------------------------------------------|
B|---------------------------------------------------|
G|---------------------------------------------------|
D|---------------------------------------------------|
A|---------------------------------------------------|
E|-3b5~----------------------------------------------|

Shoot you, shoot you, shoot you, shoot you down
Shoot you, shoot you, shoot you down

I’m gonna shoot to thrill
Play to kill, shoot to thrill
Acordes para:
    Composição: Angus Young / Brian Johnson / Malcolm YoungColaboração e revisão:
    • Gustavo Cunha
    • ivan

    0 comentários

      mostrar mais comentários

      Conseguiu tocar?

      29tocaram1ainda não

      Grave um vídeo tocando Shoot to Thrill e mande pra gente!

      00:00 / 00:00
      outros vídeos desta música
      repetirqualidadeAutomático
      Outro vídeos desta música
        00:00 / 00:00
        Capítulos
        • Início - Vinheta Dia Mundial do Rock
        • Tocando a música
        • Power Chords da Introdução
        • Tocando Introdução
        • Ensinando Introdução (Parte 1)
        • Ensinando Introdução (Parte 2)
        • Power Chords Primeira Parte e Pré-refrão
        • Tocando Primeira Parte e Pré-refrão
        • Ensinando Primeira Parte
        • Ensinando Pré-refrão (Parte 1)
        • Ensinando Pré-refrão (Parte 2)
        • Tocando Refrão
        • Ensinando Refrão
        • Ensinando Variação 1: Refrão
        • Ensinando Variação 2: Refrão
        • Dicas para repetição
        • Tocando Passagem + Solo 1
        • Ensinando Passagem
        • Ensinando Base do Solo 1
        • Ensinando Solo 1 (Parte 1)
        • Ensinando Solo 1 (Parte 2)
        • Ensinando Solo 1 (Parte 3)
        • Ensinando Solo 1 (Parte 4)
        • Tocando Solo 1 (Tablatura)
        • Acordes Continuação e Solo 2
        • Tocando Continuação + Solo 2
        • Ensinando Continuação (Parte 1)
        • Ensinando Continuação (Parte 2)
        • Ensinando Continuação (Parte 3)
        • Continuação: Guitarra Base - Parte 1
        • Continuação: Guitarra Base - Parte 2
        • Tocando Guitarra Base (Tablatura)
        • Dicas para o Solo 2
        • Tocando Solo 2
        • Ensinando Solo 2 (Parte 1)
        • Ensinando Solo 2 (Parte 2)
        • Ensinando Solo 2 (Parte 3)
        • Ensinando Solo 2 (Parte 4)
        • Ensinando Solo 2 (Parte 5)
        • Ensinando Solo 2 (Parte 6)
        • Ensinando Solo 2 (Parte 7)
        • Ensinando Solo 2 (Parte 8)
        • Solo 2 - Improvisação
        • Solo 2 - Final
        • Encerramento
        OK