Cifra Club

Aprenda

Shot Down In Flames

AC/DC

Cifra: Principal (violão e guitarra)
Tom: G
Malcolm Young, Angus Young & Bon Scott) 
 
Publicado sobre 
 (1979)     
 Let There Be Rock - The Movie - Live In Paris (1997)     
 
 
Tablatura de guitarra 
 
  Intro:

E|-------------------------|------------------|-------------------------|
B|-------------------------|------------------|-------------------------|
G|--5--7--7--5--7--7--7----|------------------|--5--7--7--5--7--7--2----|
D|--5--7--7--5--7--7--7----|------------------|--5--7--7--5--7--7--2----|
A|--5--5--5--5--5--5--5----|------------------|--5--5--5--5--5--5--0----|
E|-------------------------|------------------|-------------------------|

                     Verse Riff:

|------------------|---------------------|--5----5--3----------|
|------------------|---------------------|--7----7--5----------|
|------------------|--6----6--4----------|--7----7--5----------|
|------------------|--7----7--5----------|--7----7--5----------|
|------------------|--7----7--5----------|--5----5--3----------|
|------------------|--5----5--3----------|---------------------|

                                              out...

|---------------------|--5----5--3----------|---------------------|
|---------------------|--7----7--5----------|---------------------|
|--6----6--4----------|--7----7--5----------|--6----6--4----------|
|--7----7--5----------|--7----7--5----------|--7----7--5----------|
|--7----7--5----------|--5----5--3----------|--7----7--5----------|
|--5----5--3----------|---------------------|--5----5--3----------|

|--5----5--3----------|---------------------|--------------------------|
|--7----7--5----------|---------------------|--------------------------|
|--7----7--5----------|--6----6--4----------|--5--7--7--5--7--7--5--7--|
|--7----7--5----------|--7----7--5----------|--5--7--7--5--7--7--5--7--|
|--5----5--3----------|--7----7--5----------|--5--5--5--5--5--5--5--5--|
|---------------------|--5----5--3----------|--------------------------|

|---------------------|--5----5--3----------|---------------------|
|---------------------|--7----7--5----------|---------------------|
|--6----6--4----------|--7----7--5----------|--6----6--4----------|
|--7----7--5----------|--7----7--5----------|--7----7--5----------|
|--7----7--5----------|--5----5--3----------|--7----7--5----------|
|--5----5--3----------|---------------------|--5----5--3----------|

|--5----5--3----------|---------------------|--5----5--3----------|
|--7----7--5----------|---------------------|--7----7--5----------|
|--7----7--5----------|--6----6--4----------|--7----7--5----------|
|--7----7--5----------|--7----7--5----------|--7----7--5----------|
|--5----5--3----------|--7----7--5----------|--5----5--3----------|
|---------------------|--5----5--3----------|---------------------|

                                                                shot down in

|---------------------|--------------------------|--------------------------|
|---------------------|--------------------------|--------------------------|
|--6----6--4----------|--5--7--7--5--7--7--5--7--|--7--5--7--7--5--7--7--7--|
|--7----7--5----------|--5--7--7--5--7--7--5--7--|--7--5--7--7--5--7--7--7--|
|--7----7--5----------|--5--5--5--5--5--5--5--5--|--5--5--5--5--5--5--5--5--|
|--5----5--3----------|--------------------------|--------------------------|

Chorus: flames

|---------3----------|--------------------|---------3----------|
|---------3----------|--3------1----------|---------3----------|
|--2------0----------|--2------0----------|--2------0----------|
|--2------0----------|--0------2----------|--2------0----------|
|--0------2----------|--0------3----------|--0------2----------|
|---------3----------|---------3----------|---------3----------|

|--------------------|---------3----------|--------------------|
|--3------1----------|---------3----------|--3------1----------|
|--2------0----------|--2------0----------|--2------0----------|
|--0------2----------|--2------0----------|--0------2----------|
|--0------3----------|--0------2----------|--0------3----------|
|---------3----------|---------3----------|---------3----------|

|---------3----------|--------------------------|--------------------------|
|---------3----------|--------------------------|--------------------------|
|--2------0----------|--5--7--7--5--7--7--5--7--|--7--5--7--7--5--7--7--7--|
|--2------0----------|--5--7--7--5--7--7--5--7--|--7--5--7--7--5--7--7--7--|
|--0------2----------|--5--5--5--5--5--5--5--5--|--5--5--5--5--5--5--5--5--|
|---------3----------|--------------------------|--------------------------|
Composição de Angus Young / Bon Scott / Malcolm Young
14.514 exibições
    • ½ Tom
    • A
    • Bb
    • B
    • C
    • Db
    • D
    • Eb
    • E
    • F
    • F#
    • G
    • Ab
  • Adicionar à lista

    0 comentários

    Mostrar mais comentários

    Conseguiu tocar?

    1 Tocaram 0 Ainda não

    Grave um vídeo tocando Shot Down In Flames e mande pra gente!

    00:00 / 00:00
    outros vídeos desta música
    repetir qualidade Automático
    Outros vídeos desta música
    00:00 / 00:00
    Automático

    Cifra Club Pro

    Aproveite o Cifra Club com benefícios exclusivos e sem anúncios
    7 dias grátis
    Cifra Club Pro
    Aproveite o Cifra Club com benefícios exclusivos e sem anúncios
    7 dias grátis
    OK