Cifra Club

Aprenda

Shot In The Dark

AC/DC

Cifra: Principal (violão e guitarra)
tom: D
[Intro] A  D  G 
        A  D  G  
        A  D  A  D 

[Tab - Riff Introdução]

E|------------------------------------------|
B|-7--5h6---5------7--5h6----5h6------------|
G|-7--5-----6------7--5------5--------------|
D|----------7-------------7-----------------|
A|------------------------------------------|
E|------------------------------------------|

   D   G  
E|-2---3--3---------------------------------|
B|-3---3--3---------------------------------|
G|-2----------------------------------------|
D|------------------------------------------|
A|-----2--2---------------------------------|
E|-----3--3---------------------------------|

[Primeira Parte]

[Tab - Guitarra Principal]

                                   D 
E|---------------------------------2--2-----|
B|-7--5h6---5------7--5h6----5h6---3--3-----|
G|-7--5-----6------7--5------5-----2--2-=---|
D|----------7-------------7-----------------|
A|------------------------------------------|
E|------------------------------------------|

[Tab - Guitarra Base]

   A                     D  
E|-----------------------2--2---------------|
B|-3--0--3------3--0--3--3--3---------------|
G|-3--0--3------3--0--3--2--2---------------|
D|-3--0--3------3--0--3---------------------|
A|------------------------------------------|
E|------------------------------------------|

          A
I need a pick me up
                        D
A Rollin' Thunder truck
A                      D
  I need a shot of you
           A
That tattooed lady wild
                 D
Like a mountain lion
         A                              D
I got a hunger, that’s the loving truth
  
[Pré-Refrão]

            G           D   D4
You got a long night coming
       G             D   D4
And a long night pumping
             C
You got the right position
     G
The heat of transmission  

[Refrão]

[Tab - Riff Refrão]

   D        A          D   
E|-2-------------------2--2-----------------|
B|-3--------3---3--3---3--3-----------------|
G|-2--------3---3--3---2--2-----------------|
D|----------3---3--3------------------------|
A|----4--2----------------------------------|
E|------------------------------------------|

[Tab - Riff Refrão Variação]

   D         G   C     D  
E|-2---------3---------2--------------------|
B|-3---------3---1--1--3--------------------|
G|-2-------------0--0--2--------------------|
D|---------------2--2-----------------------|
A|----4--2---2---3--3-----------------------|
E|-----------3------------------------------|

    D          A
A shot in the dark
                 D
Make you feel alright
               A
A shot in the dark
                       D
All through the whole night
               A
A shot in the dark
                 D
Yeah, electric sparks
               G
A shot in the dark
         C           D
Beats a walk in the park, yeah
 
[Segunda Parte]

                 A
Blast it on the radio
                     D
Breaking on the TV show
 A                           D
Send it out on all the wires
          A
And if I didn't know any better
                    D
Your mission is to party
           A            D
Till the broad daylight
  

[Pré-Refrão]

           G            D   D4
You got a long night coming
       G             D   D4
And a long night pumping
             C
You got the right position
     G
The heat of transmission 
 
[Refrão]


    D          A
A shot in the dark
                 D
Make you feel alright
               A
A shot in the dark
                       D
All through the whole night
               A
A shot in the dark
                 D
Yeah, electric sparks
               G
A shot in the dark
         C           D
Beats a walk in the park, yeah

[Ponte] A  D  G 

A                         D     G
  My mission is to hit ignition
  
[Solo] G  D  G  D 
       A  D  A  D  

E|-----------------------------------------------|
B|-/8--8-8-8-8-8-8-8------3-3-3/6-6/3--1/3--1p0--|
G|-/9--9-9-9-9-9-9-9------4-4-4/7-7/4--2/4--1p0--|
D|-----------------------------------------------|
A|-----------------------------------------------|
E|-----------------------------------------------|

E|-----------------------------------------------|
B|-/8--8-8-8-8-8-8-8-------15---15---15--15---15~|
G|-/9--9-9-9-9-9-9-9----16---16---16---16---16---|
D|-----------------------------------------------|
A|-----------------------------------------------|
E|-----------------------------------------------|

E|-----------------------------------------------|
B|-8b-------8b------8r-p5------------------------|
G|------8b-------8b-------5-7--------------------|
D|-----------------------------7-----------------|
A|-----------------------------------------------|
E|---------------------------------/-------------|

E|-12--12----12---12--12----12----12--12---------|
B|-13-----15------13-----15-------13--13b--------|
G|-----------------------------------------------|
D|-----------------------------------------------|
A|-----------------------------------------------|
E|-----------------------------------------------|

E|-12--------------------------------------------|
B|-13br--p10-------------10br---------------10~--|
G|-------------11pp9--10--------11p9-------------|
D|------------------------------------10/11------|
A|-----------------------------------------------|
E|-----------------------------------------------|


[Refrão]

    D          A
A shot in the dark
                 D
Make you feel alright
               A
A shot in the dark
                       D
All through the whole night
               A
A shot in the dark
                 D
Yeah, electric sparks
               G
A shot in the dark
         C           D
Beats a walk in the park, yeah
 
               A
A shot in the dark
                    D
Ooh, a shot in the dark
               A
A shot in the dark
               D
A shot in the dark
               A
A shot in the dark
                 D
Make you feel alright
               G
A shot in the dark
         C           D
Beats a walk in the park, yeah
Composição de Angus Young / Malcom Young
Colaboração e revisão:
  • João Prado
  • Lucas Kappaun
1.002 exibições
    • ½ Tom
    • A
    • Bb
    • B
    • C
    • Db
    • D
    • Eb
    • E
    • F
    • F#
    • G
    • Ab
  • Adicionar à lista

    0 comentários

    Ver todos os comentários

    Conseguiu tocar?

    1 Tocaram 0 Ainda não

    Grave um vídeo tocando Shot In The Dark e nos envie!

    00:00 / 00:00
    Outros vídeos desta música
    Repetir Qualidade Automático
    Outros vídeos desta música
    00:00 / 00:00
    Automático

    Cifra Club Pro

    Aproveite o Cifra Club com benefícios exclusivos e sem anúncios
    Cifra Club Pro
    Aproveite o Cifra Club com benefícios exclusivos e sem anúncios
    OK