Cifra Club

Aprenda

Stand Up

AC/DC

Cifra: Principal (violão e guitarra)
Tom: F
fade in.....
E------------------------|
B--3-/-6-6-6-6-6-3-6-3-3-|
G--0---0-0-0-0-0-0-0-0-0-|reapeat
D--5---5-5-5-5-5-5-5-5-5-|
A------------------------|
E------------------------|

|----------------------------|
|--3---3-3-3------3---3------|
|--2---2-2-2------2---2------|
|--0^3-3-3-0--3^0-----0------|
|-------------------3--------|
|----------------------------|

chorus

|--2--3--|---------------------|-3------|
|--3--3--|---------------------|-3--3---|
|--2--0--|-----0-2-4-4-2-0-----|-0--2---|
|--0--0--|-0-3-------------3-0-|-0--0---|
|--------|---------------------|--------|
|-----3--|---------------------|-3------|
3.769 exibições
    • ½ Tom
    • A
    • Bb
    • B
    • C
    • Db
    • D
    • Eb
    • E
    • F
    • F#
    • G
    • Ab
  • Adicionar à lista

    0 comentários

    Mostrar mais comentários

    Conseguiu tocar?

    0 Tocaram 0 Ainda não

    Grave um vídeo tocando Stand Up e mande pra gente!

    00:00 / 00:00
    outros vídeos desta música
    repetir qualidade Automático
    Outros vídeos desta música
    00:00 / 00:00
    Automático
    OK