Cifra Club

The Jack

AC/DC

Cifra: Principal (violão e guitarra)
Tom: E
Introdução: B5  A5  B5  A5
            B5  A5  E5
            ( A5  A#5  B5 )


Primeira Parte:

                  E5
She gave me the Queen

She gave me the King

She was wheelin' and dealin'

Just doin' her thing
                   A5
She was holdin' a pair

But I had to try

Her Deuce was wild

But my Ace was high

     E5
But how was I to know

That she'd been dealt with before

Said she'd never had a Full House

But I should have known

          A5
From the tattoo on her left leg

And the garter on her right

She'd have the card to bring me down

If she played it right


Primeiro Refrão:

               E5
She's got the jack

She's got the jack

She's got the jack

She's got the jack
               A5
She's got the jack

She's got the jack
               E5
She's got the jack

she's got the jack
               B5
She's got the jack, jack, jack, jack
 A5
Jack, jack, jack
               E5  ( A5  A#5  B5 )
She's got the jack


Solo: E5  A5  E5  B5  A5  E5
      ( A5  A#5  B5 )


E|------------------------------------------------------|
B|------------------------------------------------------|
G|------9~--h11b12---------b13r11p9~~\------------------|
D|-9-11---------------9-11------------------------------|
A|------------------------------------------------------|
E|------------------------------------------------------|

E|------------------------------------------------------|
B|-----------------------12-----------------------------|
G|------9h11b12----11b13----b12-b13r11p9~---------------|
D|-9h11-------------------------------------------------|
A|------------------------------------------------------|
E|------------------------------------------------------|

E|---------7-10-------------------7---------------------|
B|-10b12--------10b12-10-8-10b12----10b12r10p8---10---8-|
G|---------------------------------------------9----9---|
D|------------------------------------------------------|
A|------------------------------------------------------|
E|------------------------------------------------------|

E|------------------------------------------------------|
B|----------3h5p3p0--------------------10b12--8---------|
G|-2b4~~...---------2p0-------------------------9~~-----|
D|----------------------0h2p0h2p...---------------------|
A|------------------------------------------------------|
E|------------------------------------------------------|

E|-------12---------------------------------------------|
B|-/12------12-15b17--b17~--b17r15p12-14b15~r14p12------|
G|------------------------------------------------------|
D|------------------------------------------------------|
A|------------------------------------------------------|
E|------------------------------------------------------|

E|-15b17--15b17--15-12-14-15-16-17-15-14h15p14p12-------|
B|------------------------------------------------15p12-|
G|------------------------------------------------------|
D|------------------------------------------------------|
A|------------------------------------------------------|
E|------------------------------------------------------|

E|-------------------------------------12---------------|
B|----------12----------------------12----15p12---------|
G|-14b16~------14p12----14----12~---------------14b16r14|
D|-------------------14----14---------------------------|
A|------------------------------------------------------|
E|------------------------------------------------------|

E|------------------------------------------------------|
B|--------------------15------15------------------------|
G|-p12----14----12~---14b16---14b16~--------------------|
D|-----14----14-----------------------------------------|
A|------------------------------------------------------|
E|------------------------------------------------------|


Segunda Parte:

                    E5
Poker face was her name

Poker face was her nature

Poker straight was her game

If she knew she could get you
                A5
She played 'em fast

And she played 'em hard
            
She could close her eyes
           
And feel every card

     E5
But how was I to know

That she'd been shuffled before

Said she'd never had a Royal Flush

But I should have known
     A5
That all the cards were comin'

From the bottom of the pack

And if I'd known what 

She was dealin' out

I'd have dealt it back


Segundo Refrão:

               E5
She's got the jack

She's got the jack

She's got the jack

And who knows what else?

She's got the jack
               A5
She's got the jack

She's got the jack
               E5
She's got the jack

she's got the jack
               B5
She's got the jack, jack, jack, jack, 
 A5
Jack, jack, jack
               E5  ( A5  A#5  B5 )
She's got the jack


Terceiro Refrão:

               E5
She's got the jack
               E5
She's got the jack
                          E5
Ooh, It was a bad deal, (Jack)
                  E5
She gave me the (Jack)
                A5
She's got the (Jack)
                A5
She's got the (Jack)
                E5
She's got the (Jack)
 
Ooh can't you tell
                E5
She's got the (Jack)
  B5
(Jack, jack, jack, jack)
  A5
(Jack, jack, jack)
                E5
(She's got the jack)
                     ( A5  A#5  B5 )
(She's got the Jack)


Quarto Refrão:

               E5
She's got the jack

She's got the Jack

She's got the jack, you never know

She's got the jack
               A5
She's got the jack

She's got the jack
               E5
She's got the jack, and it hurts

(She's got the jack)
               B5
She's got the jack, jack, jack, jack 
 A5
Jack, jack, jack
               E5  (Riff)  F5  E5
She's got the jack

(Riff Final – Guitarra 1)

E|-------0---3b4--0-------------------------|
B|-0-3h4---0---------3--0-------------------|
G|-------------------------2b3--0--2p0------|
D|-------------------------------------2--0-|
A|----------------------------------------0-|
E|------------------------------------------|

(Riff Final – Guitarra 2)

E|------------------------------------------|
B|-----0------0------0----------------------|
G|-/4----4-3----3-2----2-0h1p0h1p...--------|
D|------------------------------------------|
A|------------------------------------------|
E|------------------------------------------|

E|------------------------------------------|
B|------------------------------------------|
G|------------------------------------------|
D|-3-3-3-3...----2--------------------------|
A|-3-3-3-3...----2--------------------------|
E|-1-1-1-1...----0--------------------------|
exibições 109.157
Acordes para:
    Composição: Angus Young / Bon Scott / Malcolm Young Colaboração e revisão:
    • Vinícius Dias

    0 comentários

    mostrar mais comentários

    Conseguiu tocar?

    24 tocaram 2 ainda não

    Grave um vídeo tocando The Jack e mande pra gente!

    00:00 / 00:00
    outros vídeos desta música
    repetir qualidade Automático
    Outros vídeos desta música
    00:00 / 00:00
    Automático
    Capítulos
    • Tocando a música
    • Dicas Iniciais / Equipamentos
    • Acordes da música
    • Tocando Introdução
    • Introdução - Guitarra 1
    • Introdução - Guitarra 2
    • Dicas Primeira Parte
    • Tocando Primeira Parte
    • Primeira Parte
    • Dicas Refrão
    • Tocando Refrão
    • Primeiro Refrão
    • Dicas Solo
    • Tocando Solo
    • Solo - Parte 1 de 5
    • Solo - Parte 2 de 5
    • Solo - Parte 3 de 5
    • Solo - Parte 4 de 5
    • Solo - Parte 5 de 5
    • Solo (Devagar)
    • Dicas Repetição - Final
    • Tocando Repetição - Final
    • Final - Guitarra 1
    • Final - Guitarra 2
    • Encerramento
    • Ficha técnica
    OK