Cifra Club

Aprenda

The Jack

AC/DC

Cifra: Guitarra (violão e guitarra)
tom: C#m
[Intro]

    B          A          B          A          B          A          E
E|----------|----------|----------|----------|----------|----------|----------|
B|----------|----------|----------|----------|----------|----------|----------|
G|----------|----------|----------|----------|----------|----------|----------|
D|-4-4-6-7--|-2-2-4-5--|-4-4-6-7--|-2-2-4-5--|-4-4-6-7--|-2-2-4-5--|----------|
A|-2-2-2-2--|-0-0-0-0--|-2-2-2-2--|-0-0-0-0--|-2-2-2-2--|-0-0-0-0--|-2-2-4-5--|
E|----------|----------|----------|----------|----------|----------|-0-0-0-0--|

E|----------|-----------------|
B|----------|-----------------|
G|----------|-----------------|
D|-2-3-4----|-4-4-4-4-4-4-4/--|
A|-0-1-2----|-2-2-2-2-2-2-2/--|
E|----------|-----------------|

E|-----------| e|-----------|
B|-----------| b|--------3--|    
G|-----------| g|--------4--|            
D|-----------| D|--2-2-4-5--|            
A|-2-2-4-5---| A|--0-0-0-0--|            
E|-0-0-0-0---| E|-----------|

    E
E|-------------------------------|-------------------------------|
B|-------------------------------|-------------------------------|
G|-------------------------------|-------------------------------|
D|-------------------------------|-------------------------------|
A|-2---2---4---4---5---5---4---4-|-2---2---4---4---5---5---4---4-|
E|-0---0---0---0---0---0---0---0-|-0---0---0---0---0---0---0---0-|

    E
E|-------------------------------|-------------------------------|
B|-------------------------------|-------------------------------|
G|-------------------------------|-------------------------------|
D|-------------------------------|-------------------------------|
A|-2---2---4---4---5---5---4---4-|-2---2---4---4---5---5---4---4-|
E|-0---0---0---0---0---0---0---0-|-0---0---0---0---0---0---0---0-|

    A
E|-------------------------------|-------------------------------|
B|-------------------------------|-------------------------------|
G|-------------------------------|-------------------------------|
D|-2---2---4---4---2---2---4---4-|-2---2---4---4---2---2---4---4-|
A|-0---0---0---0---0---0---0---0-|-0---0---0---0---0---0---0---0-|
E|-------------------------------|-------------------------------|

    E
E|-------------------------------|-------------------------------|
B|-------------------------------|-------------------------------|
G|-------------------------------|-------------------------------|
D|-------------------------------|-------------------------------|
A|-2---2---4---4---5---5---4---4-|-2---2---4---4---5---5---4---4-|
E|-0---0---0---0---0---0---0---0-|-0---0---0---0---0---0---0---0-|

   B                                A            
E|-------------------------------|-------------------------------|
B|-------------------------------|-------------------------------|
G|------4-4-4-4-4-4-4-4-4-4-4-4--|-2-2-2-2-2-2-2-2-2-2-2-2-------|
D|------4-4-4-4-4-4-4-4-4-4-4-4--|-2-2-2-2-2-2-2-2-2-2-2-2-------|
A|------2-2-2-2-2-2-2-2-2-2-2-2--|-0-0-0-0-0-0-0-0-0-0-0-0-------|
E|-------------------------------|-------------------------------|

    E                                                       B
E|-------------------------------|-------------------------------|
B|-------------------------------|-------------------------------|
G|-------------------------------|-------------------------------|
D|-------------------------------|-----------------2---3---4-----|
A|-2---2---4---4---5---5---4---4-|-2---2---2---2---0---1---2-----|
E|-0---0---0---0---0---0---0---0-|-0---0---0---0---0---0---0-----|

E|-----------0---3-(4)-0-----------------------------0------------------------|
B|------0--3---0---------3--0------------------------0----------------------9\|
G|----------------------------2-4-2-0-2-0-------2----1----------------------9\|
D|-----------------------------------------2----3----2----------------------9\|
A|----------------------------------------------3----2----------------------7\|
E|-0-----------------------------------------0--1----0----------------------0\|

   E
E|----------------------------------------------------------------------------|
B|----------------------------------------------------------------------12----|
G|--------9--11-(13)----------11-13-11-9---------9--11-13---11-12----13-------|
D|-9--11---------------9--11---------------9--11------------------------------|
A|----------------------------------------------------------------------------|
E|----------------------------------------------------------------------------|
                                           B 
E|----------------------------------------------------------------------------|
B|-------------------------------12---15--------------------------------------|
G|-13--12--13--11-9-\----14-16-----------14-16-14-12-14-14-16-14-12----14---12|
D|------------------------------------------------------------------14----14--|
A|----------------------------------------------------------------------------|
E|----------------------------------------------------------------------------|

E|----------------------------------------------------------------------------|
B|-------------------------------3-0-------------------------10-12--8---------|
G|-2-4-----2-4-2-4-2-4-2-4---2-0-----2-0-----0------------------------9-------|
D|---------------------------------------2-0---0---2-----0--------------------|
A|----------------------------------------------------------------------------|
E|----------------------------------------------------------------------------|

E|-------12----------------------------------------------15-17-15-17-15-12-14-|
B|-12-15----12--15--17--17---17-15-12-14-15------14--12-----------------------|
G|----------------------------------------------------------------------------|
D|----------------------------------------------------------------------------|
A|----------------------------------------------------------------------------|
E|----------------------------------------------------------------------------|

E|15-17-15-14-12----12----------------------------------------------------12--|
B|---------------15----15-12----12----------12-------------------------12-----|
G|---------------------------14----14-14-16----15-12-14-12----12-14-16--------|
D|---------------------------------------------------------14-----------------|
A|----------------------------------------------------------------------------|
E|----------------------------------------------------------------------------|

E|----------------------------------------------------|
B|15-12-------------------------------------15----15--|
G|------15-14-12----14----12\------9\----14-16-14-16--|
D|---------------14----14----\-------\----------------|
A|----------------------------------------------------|
E|----------------------------------------------------|
Composição de Angus Young / Bon Scott / Malcolm Young
Colaboração e revisão:
  • Élison Duarte
951 exibições
    • ½ Tom
    • Am
    • Bbm
    • Bm
    • Cm
    • C#m
    • Dm
    • Ebm
    • Em
    • Fm
    • F#m
    • Gm
    • G#m
  • Adicionar à lista

    0 comentários

    Ver todos os comentários

    Conseguiu tocar?

    1 Tocaram 0 Ainda não

    Grave um vídeo tocando The Jack e nos envie!

    00:00 / 00:00
    Outros vídeos desta música
    Repetir Qualidade Automático
    Outros vídeos desta música
    00:00 / 00:00
    Automático

    Cifra Club Pro

    Aproveite o Cifra Club com benefícios exclusivos e sem anúncios
    Cifra Club Pro
    Aproveite o Cifra Club com benefícios exclusivos e sem anúncios
    OK