Cifra Club

Aprenda

This Means War

AC/DC

Cifra: Principal (violão e guitarra)
Tom: C
E---------3----3-------|
B---------3----3-------|
G---------2----0-------|
D----2----0----0---2---|
A----2---------2---2---|
E----0---------3---0---|

E----------------------|       |-----------------|
B----------------------|       |-----------------|
G----------------------|       |-----------------|
D---5^0-4^0-2^0----|REPEAT x3  |--0-2^0-4^0-5^0--|
A-0--------------------|       |-----------------|
E----------------------|       |-----------------|
Riff 1
E------------------------------------------------|
B------------------------------------------------|
G---2--------------------------------------------|
D---2--------------------------------------------|
A---0--------------------------------------------|
E------------------------------------------------|
          Riff 1.2
E|-----| |-------------||
B|-----| |-------------||
G|--2--| |--2--2--2----||
D|--2--| |--2--2--2----||
A|--0--| |--0--0--0----||
E|-----| |-------------|| repeat

Riff 2
Rhtyem              x
E|---------2--3-----|--------------------|-------2--3--------|----------|
B|---------3--3-----|--------------------|-------3--3--------|----2-----|
G|---1-----2--0-----|----7----5-10--7----|---1---2--0--------|----2-----|
D|---2-----0--0--2--|----7----5-10--7----|---2---0--0----2---|----2-----|
A|---2-----------2--|----5----3--8--5----|---2-----------2---|----0-----|
E|---0--------3--0--|--------------------|---0------3----0---|----------|

E|------------------|--------------------|-------------------|
B|---9~~----12---9~~|----7~~-5-10--7~~---|--7~~-7-12--7~~~---|
G|---9~~-7--12---9~~|----7~~~5-10--7~~--x|/-7~~-7-12--7~~~---|
D|-------7----------|-------------------x|/------------------|
A|------------------|-------------------x|/------------------|
E|------------------|--------------------|---------------0---| back to lead

solo
E|---------------------12-----12~~~-12---------------------------------------------------------|
B|--------15b(17)~~-15-----15----------15-12----12---------------------------------------------|
G|-------------------------------------------14---14-12-14-12-----------------x\---------------|
D|--x\------------------------------------------------------------------------x\---------------|
A|--x\------------------------------------------------------------------------x\---------------|
E|--x\---------------------------------------------------------12~~\-/~~12b---x\---------------|

E|-----------------------12----12--12-12b-|----------------------------|                        
B|--15b(17)--15-12-12-15----15------------|----------------------------|                        
G|----------------------------------------|----------------------------|                        
D|----------------------------------------|---x\-----------------------|                        
A|----------------------------------------|---x\-----------------------|                         
E|----------------------------------------|0--whammy bar and scraping--|                        
Composição de Angus Young / Brian Johnson / Malcolm Young
3.913 exibições
    • ½ Tom
    • A
    • Bb
    • B
    • C
    • Db
    • D
    • Eb
    • E
    • F
    • F#
    • G
    • Ab
  • Adicionar à lista

    0 comentários

    Mostrar mais comentários

    Conseguiu tocar?

    0 Tocaram 0 Ainda não

    Grave um vídeo tocando This Means War e mande pra gente!

    00:00 / 00:00
    outros vídeos desta música
    repetir qualidade Automático
    Outros vídeos desta música
    00:00 / 00:00
    Automático
    OK