Cifra Club

Aprenda

T.N.T.

AC/DC

Cifra: Versão 5 (violão e guitarra)
Tom: D
E
E|-----0-----|
B|-----0-----|
G|-----1-----|
D|-----2-----|
A|-----2-----|
E|-----0-----|

Rhythm Figure 1

E|-------------------|-------------------------|------------------|
B|-----------3----2--|---------2---------------|----------3----2--|
G|---1-------0----2--|---------2------------1--|----------0----2--|
D|---2-------0----2--|---------2------------2--|----------0----2--|
A|---2------------0--|---------0------------2--|---------------0--|
E|---0-------3-------|-----3--------3B4-----0--|----------3-------|

End Rhythm Figure 1

E|--------------------|
B|-----2--------------|
G|-----2-----------1--|
D|-----2-----------2--|
A|-----0-----------2--|
E|--3-----3B4------0--|

Rhythm Figure 2

E|------------|--------------------|-----------------|----------------|
B|----3----2--|--------2-----------|---------3----2--|------2---------|
G|----0----2--|--------2--------1--|---------0----2--|------2-------1-|
D|----0----2--|--------2--------2--|---------0----2--|------2-------2-|
A|---------0--|--------0--------2--|--------------0--|------0-------2-|
E|----3-------|-----3-----3B4---0--|---------3-------|---3-----3B4--0-|

Rhythm Figure 3

E|----------------------------|
B|----2-----------------------|
G|----2------------1----------|
D|----2------------2----------|
A|----0------------2----------|
E|----------3------0----------|
Composição de Angus Young / Bon Scott / Malcolm Young
Colaboração e revisão:
  • Leonardo Lamesa
29.900 exibições
  • Simplificar cifra
    • ½ Tom
    • A
    • Bb
    • B
    • C
    • Db
    • D
    • Eb
    • E
    • F
    • F#
    • G
    • Ab
  • Adicionar à lista

    0 comentários

    Mostrar mais comentários

    Conseguiu tocar?

    1 Tocaram 0 Ainda não

    Grave um vídeo tocando T.N.T. e mande pra gente!

    00:00 / 00:00
    outros vídeos desta música
    repetir qualidade Automático
    Outros vídeos desta música
    00:00 / 00:00
    Automático
    Capítulos
    • Início
    • Tocando a música
    • Configuração do Efeito
    • Acordes da Introdução e Primeira Parte
    • Tocando Introdução e Primeira Parte
    • Ensinando Riff 1
    • Tocando Refrão
    • Ensinando Refrão
    • Tocando Solo
    • Ensinando Solo
    • Acordes do Final
    • Tocando Repetições
    • Ensinando Final
    • Encerramento
    OK