Cifra Club

Aprenda

T.N.T.

AC/DC

Cifra: Versão 4 (violão e guitarra)
Tom: D
P.M.=PALM MUTE          L.R.=LET NOTE(S) RING 
 
 
 ALL PARTS ARE PLAYED WITH JUST A LITTLE BIT OF FUZZ 
 
                    INTRO      
E|-|---|----|-----------------------|----------------- 
B|-|---|----|-----------------------|----------------- 
G|-|---|----|-----------------------|----------------- 
D|-|-2-|----|-2-----5--7------------|----------------- 
A|-|-2-|----|-2-----5--7------------|----------------- 
E|-|-0-|----|-0-----3--5---3--5--3--|----------------- 
   L.R.                                P.M. 
 
        VERSE (SAME AS INTRO) 
E|--|------------------------|------------------------ 
B|--|------------------------|------------------------ 
G|--|------------------------|------------------------ 
D|--|--2-----5--7------------|------------------------ 
A|--|--2-----5--7------------|------------------------ 
E|--|--0-----3--5---3--5--3--|------------------------           
                                P.M. 
 
                    PLAY THIS PART AFTER Chorus 
    Chorus          IS PLAYED FOR THE LAST TIME  
E|--|----------|-------------------------------------- 
B|--|----------|-------------------------------------- 
G|--|----------|-------------------------------------- 
D|--|--7--5--2-|-------------------------------------- 
A|--|--7--5--2-|--5---7------------------------------- 
E|--|--5--3--O-|--3---5------------------------------- 
                          L.R. 
 
THE SOLO AT THE END OF THE SONG IS PLAYED IN E MINOR  
PENTATONIC.
Composição de Angus Young / Bon Scott / Malcolm Young
Colaboração e revisão:
  • Henrique Machado
  • Guilherme Siqueira
51.032 exibições
  • Simplificar cifra
    • ½ Tom
    • A
    • Bb
    • B
    • C
    • Db
    • D
    • Eb
    • E
    • F
    • F#
    • G
    • Ab
  • Adicionar à lista

    0 comentários

    Mostrar mais comentários

    Conseguiu tocar?

    1 Tocaram 0 Ainda não

    Grave um vídeo tocando T.N.T. e mande pra gente!

    00:00 / 00:00
    outros vídeos desta música
    repetir qualidade Automático
    Outros vídeos desta música
    00:00 / 00:00
    Automático
    Capítulos
    • Início
    • Tocando a música
    • Configuração do Efeito
    • Acordes da Introdução e Primeira Parte
    • Tocando Introdução e Primeira Parte
    • Ensinando Riff 1
    • Tocando Refrão
    • Ensinando Refrão
    • Tocando Solo
    • Ensinando Solo
    • Acordes do Final
    • Tocando Repetições
    • Ensinando Final
    • Encerramento
    OK