Cifra Club

Aprenda

Touch Too Much

AC/DC

Cifra: Principal (violão e guitarra)
Tom: G
Introdução: E5


Primeira Parte:

       E5
It was one of those nights 
          C5
When you turn out the lights
    A5                    (Riff 1)
And everything comes into view
         E5
She was taking her time
       C5
I was loosing my mind
           A5
There was nothing 
                  (Riff 1)
That she wouldn't do

(Riff 1)

E|-10p9---10p9---10p9-----------------------|
B|-10-----10-----10-------------------------|
G|--9------9------9-------------------------|
D|------------------------------------------|
A|------0------0----------------------------|
E|------------------------------------------|

    C5
It wasn't the first

Wasn't the last
      A5
She knew we were making love
       C5
I was so satisfied

Deep down inside
        D5
Like a hand in a velvet glove


Refrão:

                   E5  G5
Seems like a touch
             A5  C5  D5
A touch too much
              E5   G5
Seems like a touch
             A5  C5  D5
A touch too much
     E5
Too much for my body
     G5
Too much for my brain
  A5
This damn woman's 
      C5             D5
Gonna    drive me insane
                E5  G5
She has a touch
             A5  (Riff 2)
A touch too much

(Riff 2)

E|------------------------------------------|
B|-3-----3-----3----------------------------|
G|-2-----2-----2----------------------------|
D|-0-2-2-0-2-2-0-2--------------------------|
A|---0-0---0-0---0--------------------------|
E|------------------------------------------|

( E5 )


Segunda Parte:

             E5
She had the face of an angel
  C5
Smiling with sin
     A5                     D5
The body of venus with arms
 E5
Dealin' with danger
   C5
Strokin' my skin
         A5                         D5
Like a thunder and lightening storm

    C5
It wasn't the first

Wasn't the last
    A5
It wasn't that she didn't care
     C5
She wanted it hard

Wanted it fast
     D5
She liked it done medium rare


Refrão:

                   E5  G5
Seems like a touch
             A5  C5  D5
A touch too much
              E5   G5
Seems like a touch
             A5  C5  D5
A touch too much
     E5
Too much for my body
     G5
Too much for my brain
  A5
This damn woman's
      C5             D5
Gonna    drive me insane
                E5  G5
She has a touch
             E5
A touch too much

Touch me!

Solo: C5  A5  C5  D5
      (Riff 3)

(Parte 1)

E|----------12-------12-12-------12-12-------12-12-----|
B|-------12-12-------12-12-------12-12-------12-12-----|
G|-14b16-------14b16-------14b16-------14b16-----------|
D|-----------------------------------------------------|
A|-----------------------------------------------------|
E|-----------------------------------------------------|

E|-------12-12-------12-12-------12-12-------12--------|
B|-------12-12-------12-12-------12-12-------12--------|
G|-14b16-------14b16-------14b16-------14b16-----------|
D|-----------------------------------------------------|
A|-----------------------------------------------------|
E|-----------------------------------------------------|

E|-14b15r14--12----------------------------------------|
B|-14b15r14--12--14--12~---14--12~---------------------|
G|---------------14--12~---14--12~---------------------|
D|-----------------------------------------------------|
A|-----------------------------------------------------|
E|-----------------------------------------------------|

(Parte 2)

E|-------12-12-------12-12-------12-12-------12-12-----|
B|-------12-12-15b17-------15b17-------15b17-----------|
G|-14b16-----------------------------------------------|
D|-----------------------------------------------------|
A|-----------------------------------------------------|
E|-----------------------------------------------------|

E|-------12-12-----------------------------------------|
B|-15b17-----------------------------------------------|
G|-----------------------------------------------------|
D|-----------------------------------------------------|
A|-----------------------------------------------------|
E|-----------------------------------------------------|

(Parte 3)

E|-15-15-15-12-15-15-15-12-15-15-12-15\----------------|
B|-----------------------------------------------------|
G|-----------------------------------------------------|
D|-----------------------------------------------------|
A|-----------------------------------------------------|
E|-----------------------------------------------------|

(Parte 4)

E|-----------------------------------------------------|
B|-----------------------------------------------------|
G|--------2--------------------------------------------|
D|--------2---------------------2----------------------|
A|--------0----0---0-2~--3~--0--2----------------------|
E|-0--3~---------3--------------0----------------------|


Refrão:

              E5
Seems like a touch 
            G5
(Touch too much)
                        A5
You know it's much too much 
           D5
(Much too much)
                E5
I really wanna feel ya 
            G5
(Touch too much)
                       A5
Girl, you know you're givin' me 
           D5
(Much too much)

              E5   G5
Seems like a touch 
                     A5   D5
Just a dirty little touch 
                    E5   G5
I really need your touch
                        A5
'Cause you're much too much
              D5
Too much too much
                   E5 G5
Seems like a touch
             A5  C5  D5
A touch too much 
              E5   G5
Seems like a touch
             A5  C5  D5
A touch too much 
             E5   G5
Give me you touch
             A5  C5  D5
A touch too much 
                   E5   G5
Baby you've got a touch
             A5  C5  D5
A touch too much 


Solo Final:

(Parte 1)

E|-----------------------------------------------------|
B|-19b20~---b20r19--19b20~~--19b20r19p17---------------|
G|-----------------------------------------------------|
D|-----------------------------------------------------|
A|-----------------------------------------------------|
E|-----------------------------------------------------|

E|-----------------------------------------------------|
B|-20b22~--20b22~--20b22~\-----------------------------|
G|-----------------------------------------------------|
D|-----------------------------------------------------|
A|-----------------------------------------------------|
E|-----------------------------------------------------|

(Parte 2)

E|--------22-22b24--22b24--22b24--22b24--b24r22p20--22-|
B|-22b24-----------------------------------------------|
G|-----------------------------------------------------|
D|-----------------------------------------------------|
A|-----------------------------------------------------|
E|-----------------------------------------------------|

E|-b24r22-b24r22-b24r22-b24r22-b24r22------------------|
B|-----------------------------------------------------|
G|-----------------------------------------------------|
D|-----------------------------------------------------|
A|-----------------------------------------------------|
E|-----------------------------------------------------|

(Parte 3)

E|-----------------------------------------------------|
B|-19b20~--b20-17~--19b20-b20-17~--19b20-b20-17~-------|
G|-----------------------------------------------------|
D|-----------------------------------------------------|
A|-----------------------------------------------------|
E|-----------------------------------------------------|

E|-----------------------------------------------------|
B|-19b20-b20-17~--19b20-b20-17~--19b20-b20-17~---------|
G|-----------------------------------------------------|
D|-----------------------------------------------------|
A|-----------------------------------------------------|
E|-----------------------------------------------------|

E|-----------------------------------------------------|
B|-19b20-b20-17~--19b20-b20-17~------------------------|
G|-----------------------------------------------------|
D|-----------------------------------------------------|
A|-----------------------------------------------------|
E|-----------------------------------------------------|

(Parte 4)

E|--------22--------22--------22-----------------------|
B|-22b24-----22b24-----22b24-----22b24~----------------|
G|-----------------------------------------------------|
D|-----------------------------------------------------|
A|-----------------------------------------------------|
E|-----------------------------------------------------|

              E5   G5
Seems like a touch
             A5  C5  D5
A touch too much 
E5  G5              A5  C5  D5
       A touch too much
E5  G5              A5  C5  D5
       A touch too much
E5  G5             (Riff Final)
       A touch too much

  P.M. . . . . . .   . .   . .   .
E|-----------------------------------------------------|
B|-----------------3-----3-----3-----------------------|
G|-----------------2-----2-----2-----------------------|
D|-2-2-2-2-2-2-2-2-0-2-2-0-2-2-0-2---------------------|
A|-0-0-0-0-0-0-0-0---0-0---0-0---0---------------------|
E|-----------------------------------------------------|

Touch!

Come on and touch me!

( E5 )
Composição de Angus Young / Bon Scott / Malcolm Young
Colaboração e revisão:
  • Vinícius Dias
33.647 exibições
  • Simplificar cifra
    • ½ Tom
    • A
    • Bb
    • B
    • C
    • Db
    • D
    • Eb
    • E
    • F
    • F#
    • G
    • Ab
  • Adicionar à lista

    0 comentários

    Mostrar mais comentários

    Conseguiu tocar?

    7 Tocaram 1 Ainda não

    Grave um vídeo tocando Touch Too Much e mande pra gente!

    00:00 / 00:00
    outros vídeos desta música
    repetir qualidade Automático
    Outros vídeos desta música
    00:00 / 00:00
    Automático
    Capítulos
    • Tocando a música
    • Dicas Iniciais / Equipamentos
    • Acordes da Introdução
    • Tocando a Introdução
    • Ritmo da Introdução
    • Acordes da Primeira Parte
    • Tocando a Primeira Parte
    • Ritmo da Primeira Parte
    • Primeira Parte - Riff 1
    • Acordes do Refrão
    • Tocando o Refrão
    • Ritmo do Refrão
    • Primeiro Refrão - Riff 2
    • Tocando a Segunda Parte e Segundo Refrão
    • Ritmo da Segunda Parte
    • Tocando o Solo
    • Solo - Parte 1 de 4
    • Solo - Parte 2 de 4
    • Solo - Parte 3 de 4
    • Solo - Parte 4 de 4
    • Tocando o Terceiro Refrão e Solo Final
    • Solo Final - Parte 1 de 4
    • Solo Final - Parte 2 de 4
    • Solo Final - Parte 3 de 4
    • Solo Final - Parte 4 de 4
    • Riff Final
    • Encerramento
    • Ficha Técnica

    Cifra Club Pro

    Aproveite o Cifra Club com benefícios exclusivos e sem anúncios
    7 dias grátis
    Cifra Club Pro
    Aproveite o Cifra Club com benefícios exclusivos e sem anúncios
    7 dias grátis
    OK