Cifra Club

Aprenda

Metal Heart

Accept

Cifra: Principal (violão e guitarra)
tom: Eb
METAL HEART 
As recorded by Accept 
(From the 1985 Album METAL HEART) 
 
 
 
 Words and Music by P. Baltes, U. Dirkschneider, J. Fischer, W. Hoffmann, S. Kaufmann and Deaffy 
Arranged by Accept 
  
 
 
 Intro 
  Q=85 
 4/4 
  Gtr I 
|-------------|--------------------|---------------|---------| 
|-------------|--------------------|---------------|---------| 
|-------------|--------------------|---------------|---------| 
|-^2----------|--------------------|---------------|---------| 
|-^2----2-----|-1------------------|---2-----2-----|---1-----| 
|----------0--|--------------------|------------0--|---------| 
| 
| Gtr II 
|                            < 
|                            ~~~~~~~~~~~~~~~~~~~~~~~~~~~~~ 
|-------------|--------------------|---------------|---------| 
|-------------|---------17--16-----|-(16)----------|-(16)----| 
|-------------|------15----(15)----|-(15)----------|-(15)----| 
|-------------|---14---------------|---------------|---------| 
|-------------|--------------------|---------------|---------| 
|-------------|--------------------|---------------|---------| 
 
 
  Q=100 
  Gtr III 
|-------------|------------|-----------------|------| 
|-------------|------------|-----------------|------| 
|-4----3------|------------|-4--4--3h4p3-----|------| 
|---------5-4-|-2------4-5-|-------------5-4-|-2----| 
|-------------|------------|-----------------|------| 
|-------------|------------|-----------------|------| 
| 
| Gtr IV 
|-------------|------------|-----------------|------| 
|-------------|------------|-----------------|------| 
|-------------|------------|-----------------|------| 
|-------------|------------|-----------------|------| 
|-2----1------|------------|-2--2--1h2p1-----|------| 
|---------3-2-|-0------2-3-|-------------3-2-|-0----| 
 
 
  D5            C5              E5    C5       B5 
|-------------|---------------|--------------|------| 
|-------------|---------------|--------------|------| 
|----2--------|---------------|-4-4-4-3------|------| 
|-4-----5--4--|-2-1-2-4-5--2--|---------5-2--|-4----| 
|-------------|---------------|--------------|------| 
|-------------|---------------|--------------|------| 
| 
|-------------|---------------|--------------|------| 
|-------------|---------------|--------------|------| 
|-7-----------|-5-------------|-------5------|-4----| 
|-7-----------|-5-------------|-2-----5------|-4----| 
|-5-----------|-3-------------|-2-----3------|-2----| 
|-------------|---------------|-0------------|------| 
 
 
  E5   C5       E5           E5    C5          E5 
|-------------|------------|-----------------|------| 
|-------------|------------|-----------------|------| 
|-4----3------|------------|-4--4--3h4p3-----|------| 
|---------5-4-|-2------4-5-|-------------5-4-|-2----| 
|-------------|------------|-----------------|------| 
|-------------|------------|-----------------|------| 
| 
|-------------|------------|-----------------|------| 
|-------------|------------|-----------------|------| 
|------5------|------------|-------5---------|------| 
|-2----5------|-2----------|-2-----5---------|-2----| 
|-2----3------|-2----------|-2-----3---------|-2----| 
|-0-----------|-0----------|-0---------------|-0----| 
 
 
                              H.=H             Q=63 
  D5            C5              E5    C5       B5 
|-------------|---------------|--------------|----------|--------| 
|-------------|---------------|--------------|----------|--------| 
|----2--------|---------------|-4-4-4-3------|----------|--------| 
|-4-----5--4--|-2-1-2-4-5--2--|---------5-2--|-4--------|-(4)----| 
|-------------|---------------|--------------|----------|--------| 
|-------------|---------------|--------------|----------|--------| 
| 
|-------------|---------------|--------------|----------|--------| 
|-------------|---------------|--------------|----------|--------| 
|-7-----------|-5-------------|-------5------|-4--------|-(4)----| 
|-7-----------|-5-------------|-2-----5------|-4--------|-(4)----| 
|-5-----------|-3-------------|-2-----3------|-2--------|-(2)----| 
|-------------|---------------|-0------------|----------|--------| 
 
 
 Pre-Verse 
  Q=117 
  Gtrs III, IV 
    PM|   PM|   PM|   PM|     PM|   PM|   PM|   PM| 
|-------------------------|-------------------------| 
|-------------------------|-------------------------| 
|-------------------------|-------------------------| 
|-5-----5-----5-----5-----|-6-----6-----6-----6-----| 
|-3-3-3-3-3-3-3-3-3-3-3-3-|-3-3-3-3-3-3-3-3-3-3-3-3-| 
|-------------------------|-------------------------| 
| 
| Gtr I 
|-------------------------|-------------------------| 
|-------------------------|-------------------------| 
|-------------------------|-------------------------| 
|-------------------------|-------------------------| 
|-------------------------|-------------------------| 
|-------------------------|-------------------------| 
 
 
    PM|   PM|   PM| 
|-----------------------|-------------| 
|-----------------------|-------------| 
|-----------------------|-------------| 
|-5-----5-----5-----5-6-|-(6)----5----| 
|-3-3-3-3-3-3-3-3-3-3-3-|-(3)----3----| 
|-----------------------|-------------| 
| 
|-----------------------|-------------| 
|-----------------------|-------------| 
|-----------------------|-------------| 
|-----------------------|-------------| 
|-----------------------|-------------| 
|-----------------------|-------------| 
 
 
  Cm/G                       Ab 
     PM|   PM|   PM|   PM|      PM|   PM|   PM|   PM| 
|--------------------------|--------------------------| 
|--------------------------|--------------------------| 
|--------------------------|--------------------------| 
|--5-----5-----5-----5-----|--6-----6-----6-----6-----| 
|--3-3-3-3-3-3-3-3-3-3-3-3-|--3-3-3-3-3-3-3-3-3-3-3-3-| 
|--------------------------|--------------------------| 
| 
|--------------------------|--------------------------| 
|-^4-----------------------|-^4-----------------------| 
|-^5-----------------------|-^5-----------------------| 
|-^5-----------------------|-^6-----------------------| 
|--------------------------|--------------------------| 
|--------------------------|--------------------------| 
 
 
  Cm/G                       Ab 
     PM|   PM|   PM|   PM| 
|--------------------------|--------------| 
|--------------------------|--------------| 
|--------------------------|--------------| 
|--5-----5-----5-----5-----|--6----5------| 
|--3-3-3-3-3-3-3-3-3-3-3-3-|--3----3------| 
|--------------------------|--------------| 
| 
|--------------------------|--------------| 
|-^4-----------------------|-^4-----------| 
|-^5-----------------------|-^5-----------| 
|-^5-----------------------|-^6-----------| 
|--------------------------|--------------| 
|--------------------------|--------------| 
 
 
 Verse 
    PM|   PM|   PM|   PM|     PM|   PM|   PM|   PM| 
|-------------------------|-------------------------| 
|-------------------------|-------------------------| 
|-------------------------|-------------------------| 
|-5-----5-----5-----5-----|-6-----6-----6-----6-----| 
|-3-3-3-3-3-3-3-3-3-3-3-3-|-3-3-3-3-3-3-3-3-3-3-3-3-| 
|-------------------------|-------------------------| 
 
 
                            Ab5  G5 
    PM|   PM|   PM|   PM| 
|-------------------------|-------------| 
|-------------------------|-------------| 
|-------------------------|-------------| 
|-5-----5-----5-----5-----|-6----5------| 
|-3-3-3-3-3-3-3-3-3-3-3-3-|-6----5------| 
|-------------------------|-4----3------| 
 
 
                                                         Ab5      Eb5 Bb5 
    PM|   PM|   PM|   PM|     PM|   PM|   PM|   PM| 
|-------------------------|-------------------------|-----------|---------| 
|-------------------------|-------------------------|-----------|---------| 
|-------------------------|-------------------------|-----------|-8-------| 
|-5-----5-----5-----5-----|-6-----6-----6-----6-----|-5--6------|-8--8----| 
|-3-3-3-3-3-3-3-3-3-3-3-3-|-3-3-3-3-3-3-3-3-3-3-3-3-|-3--6------|-6--8----| 
|-------------------------|-------------------------|----4------|----6----| 
 
 
    PM|   PM|   PM|   PM|     PM|   PM|   PM|   PM| 
|-------------------------|-------------------------| 
|-------------------------|-------------------------| 
|-------------------------|-------------------------| 
|-5-----5-----5-----5-----|-6-----6-----6-----6-----| 
|-3-3-3-3-3-3-3-3-3-3-3-3-|-3-3-3-3-3-3-3-3-3-3-3-3-| 
|-------------------------|-------------------------| 
 
 
                            Ab5  G5 
    PM|   PM|   PM|   PM| 
|-------------------------|---------------| 
|-------------------------|---------------| 
|-------------------------|---------------| 
|-5-----5-----5-----5-----|-6----5--x-x---| 
|-3-3-3-3-3-3-3-3-3-3-3-3-|-6----5--x-x---| 
|-------------------------|-4----3--x-x---| 
 
 
    PM|   PM|   PM|   PM|     PM|   PM|   PM|   PM| 
|-------------------------|-------------------------| 
|-------------------------|-------------------------| 
|-------------------------|-------------------------| 
|-5-----5-----5-----5-----|-6-----6-----6-----6-----| 
|-3-3-3-3-3-3-3-3-3-3-3-3-|-3-3-3-3-3-3-3-3-3-3-3-3-| 
|-------------------------|-------------------------| 
 
 
     Ab5      G5 
|-----------|----------------| 
|-----------|----------------| 
|-----------|----------------| 
|-5--6------|-5-5-5-5-5--5\--| 
|-3--6------|-5-5-5-5-5--5\--| 
|----4------|-3-3-3-3-3--3\--| 
 
 
   Chorus 
                              $ 
    A5 
                  PM--------|     PM      PM  PM--------| 
||----------------------------|---------------------------| 
||o---------------------------|---------------------------| 
||--2-x-0-(0)-x-2-------------|-5---4-(4)---5-------------| 
||--2-x-0-(0)-x-2-------------|-7---5-(5)---7-------------| 
||o-0-------------0-0-0-0-0-0-|---0-------0---0-0-0-0-0-0-| 
||----------------------------|---------------------------| 
 
 
                       A5   G5 
     PM      PM                            ~ 
|-------------------------|-------------------| 
|-------------------------|-------------------| 
|--9---7-(7)---10--9\--2--|-------------------| 
|-10---9-(9)---10-10\--2--|-5-----------------| 
|----0-------0---------0--|-5-----------------| 
|-------------------------|-3----0-3-3-0-3-4--| 
 
 
  A5 
                PM--------|     PM      PM  PM--------| 
|---------------------------|---------------------------| 
|---------------------------|---------------------------| 
|-2---0-(0)---2-------------|-5---4-(4)---5-------------| 
|-2---0-(0)---2-------------|-7---5-(5)---7-------------| 
|-0-0-------0---0-0-0-0-0-0-|---0-------0---0-0-0-0-0-0-| 
|---------------------------|---------------------------| 
 
 
                   To Coda 
                       A5   G5 
     PM      PM 
|-------------------------|------| 
|-------------------------|------| 
|--9---7-(7)---10--9\--2--|------| 
|-10---9-(9)---10-10\--2--|-5----| 
|----0-------0---------0--|-5----| 
|-------------------------|-3----| 
 
 
 Pre-Verse 
  1. 
  Cm/G                       Ab 
     PM|   PM|   PM|   PM|      PM|   PM|   PM|   PM| 
|--------------------------|--------------------------| 
|--------------------------|--------------------------| 
|--------------------------|--------------------------| 
|--5-----5-----5-----5-----|--6-----6-----6-----6-----| 
|--3-3-3-3-3-3-3-3-3-3-3-3-|--3-3-3-3-3-3-3-3-3-3-3-3-| 
|--------------------------|--------------------------| 
| 
| Gtr I 
|--------------------------|--------------------------| 
|-^4-----------------------|-^4-----------------------| 
|-^5-----------------------|-^5-----------------------| 
|-^5-----------------------|-^6-----------------------| 
|--------------------------|--------------------------| 
|--------------------------|--------------------------| 
 
 
  Cm/G                       Ab 
     PM|   PM|   PM|   PM| 
|--------------------------|--------------| 
|--------------------------|--------------| 
|--------------------------|--------------| 
|--5-----5-----5-----5-----|--6----5------| 
|--3-3-3-3-3-3-3-3-3-3-3-3-|--3----3------| 
|--------------------------|--------------| 
| 
|--------------------------|--------------| 
|-^4-----------------------|-^4-----------| 
|-^5-----------------------|-^5-----------| 
|-^5-----------------------|-^6-----------| 
|--------------------------|--------------| 
|--------------------------|--------------| 
 
 
 Verse 
                                                         Ab5      Eb5 Bb5 
    PM|   PM|   PM|   PM|     PM|   PM|   PM|   PM| 
|-------------------------|-------------------------|-----------|---------| 
|-------------------------|-------------------------|-----------|---------| 
|-------------------------|-------------------------|-----------|-8-------| 
|-5-----5-----5-----5-----|-6-----6-----6-----6-----|-5--6------|-8--8----| 
|-3-3-3-3-3-3-3-3-3-3-3-3-|-3-3-3-3-3-3-3-3-3-3-3-3-|-3--6------|-6--8----| 
|-------------------------|-------------------------|----4------|----6----| 
 
 
  Cm/G                       Ab 
     PM|   PM|   PM|   PM|      PM|   PM|   PM|   PM| 
|--------------------------|--------------------------| 
|--------------------------|--------------------------| 
|--------------------------|--------------------------| 
|--5-----5-----5-----5-----|--6-----6-----6-----6-----| 
|--3-3-3-3-3-3-3-3-3-3-3-3-|--3-3-3-3-3-3-3-3-3-3-3-3-| 
|--------------------------|--------------------------| 
| 
| Gtr I 
|--------------------------|--------------------------| 
|-^4-----------------------|-^4-----------------------| 
|-^5-----------------------|-^5-----------------------| 
|-^5-----------------------|-^6-----------------------| 
|--------------------------|--------------------------| 
|--------------------------|--------------------------| 
 
 
  Cm/G Ab5      G5 
|------------|----------------|| 
|------------|---------------o|| 
|------------|----------------|| 
|--5--6------|-5----(5)--5\---|| 
|--3--6------|-5----(5)--5\--o|| 
|-----4------|-3----(3)--3\---|| 
| 
|------------|----------------|| 
|-^4---------|---------------o|| 
|-^5---------|----------------|| 
|-^5---------|----------------|| 
|------------|---------------o|| 
|------------|----------------|| 
 
 
 Guitar Solo 
  2. 
  Gtr III 
  ~ 
|-----------------------------------| 
|-----------------------------------| 
|-----------------------------------| 
|-------------------------------6---| 
|-7-----------(7)-7---6---7-8-------| 
|-----------------------------------| 
| 
| Gtr IV 
|   PM|   PM|       PM--|     PM--| 
|-----------------------------------| 
|-----------------------------------| 
|-----------------------------------| 
|-9-----9------9----------9---------| 
|-7-7-7-7-7-7--7----7---7-7---7---7-| 
|-----------------------------------| 
 
 
                                           TP 
|-----------------------------------------------------| 
|-----------------------------------------------------| 
|--------------7-9-9-9---9--9-9-9-9-9---9--9--8h9p==8-| 
|--7-9---10-------------------------------------------| 
|-----------------------------------------------------| 
|-----------------------------------------------------| 
| 
|      PM---|      PM--|          PM--|       PM--| 
|-----------------------------------------------------| 
|-----------------------------------------------------| 
|-----------------------------------------------------| 
|-10----------10-----------10-------------10----------| 
|--7---7----7--7---7---7----7-----7---7----7--7---7---| 
|-----------------------------------------------------| 
 
 
|-------------------------------------------------------| 
|----------------------------------------------8---10---| 
|----8h9p==8------8h9p8--------8h9p8----8-9-11----------| 
|-10-----------10---------10---------10-----------------| 
|-------------------------------------------------------| 
|-------------------------------------------------------| 
| 
|        PM--|          PM---|          PM|      PM---| 
|-------------------------------------------------------| 
|-------------------------------------------------------| 
|-------------------------------------------------------| 
|--9--------------9--------------9-----------9----------| 
|--7-----7---7----7-----7----7---7------7-7--7---7----7-| 
|-------------------------------------------------------| 
| 
| Gtr V 
|-------------------------------------------------------| 
|-------------------------------------------------------| 
|-------------------------------------------------------| 
|-------------------------------------------------------| 
|-------------------------------------------------------| 
|-------------------------------------------------------| 
 
 
  C5                 B5 
                                      PM| 
|---------------------------------|-------7---8-7h8p==7h8tr7-----10--8-7h====| 
|-10b12===(10)r-8-10---8--7---8-7-|-----x------------------------------------| 
|---------------------------------|---x--------------------------------------| 
|---------------------------------|------------------------------------------| 
|---------------------------------|------------------------------------------| 
|---------------------------------|------------------------------------------| 
| 
|                                         PM|   PM--|        PM|     PM| 
|---------------------------------|------------------------------------------| 
|---------------------------------|------------------------------------------| 
|---------------------------------|------------------------------------------| 
|-10-----------------9------------|-9---------9---------9---------9----------| 
|-10-----------------9------------|-7-----7-7-7-7---7---7----7-7--7--7-7-----| 
|--8-----------------7------------|------------------------------------------| 
| 
|---------------------------------|------------------------------------------| 
|---------------------------------|------------------------------------------| 
|---------------------------------|------------------------------------------| 
|---------------------------------|------------------------------------------| 
|---------------------------6-----|-7-------------------9--------------------| 
|---------------------------------|------------------------------------------| 
 
 
|--8p7----7-----------------------------------------| 
|------10---10p==8p=7---8p7----7------------7---8---| 
|---------------------9-----9----9---8----9---------| 
|---------------------------------------------------| 
|---------------------------------------------------| 
|---------------------------------------------------| 
| 
|         PM---|          PM|      PM--|      PM--| 
|---------------------------------------------------| 
|---------------------------------------------------| 
|---------------------------------------------------| 
|-10---------------10---------10---------10---------| 
|--7------7----7----7-----7-7--7---7---7--7---7---7-| 
|---------------------------------------------------| 
| 
|---------------------------------------------------| 
|---------------------------------------------------| 
|---------------------------------------------------| 
|-----------------------------10--------------------| 
|-10------------------------------------------------| 
|---------------------------------------------------| 
 
 
  E5    C5               G/B        D/A 
                   ~                 ~~~ 
|----------------------|-9b10--9b10-(9)---------|| 
|-8b10r=(8)p7-8--7-----|------------------------|| 
|------------------9---|------------------------|| 
|----------------------|------------------------|| 
|----------------------|------------------------|| 
|----------------------|------------------------|| 
| 
|----------------------|------------------------|| 
|----------------------|-8-----------7----------|| 
|-9--------------------|-7-----------7----------|| 
|-9-----10-------------|-9-----------7----------|| 
|-7-----10-------------|------------------------|| 
|--------8-------------|------------------------|| 
| 
|----------------------|------------------------|| 
|----------------------|------------------------|| 
|----------------------|------------------------|| 
|----------------------|------------------------|| 
|----------------------|------------------x\----|| 
|----------------------|------------------x\----|| 
 
 
 Interlude 
                   C5 
   ~                 ~~~~ 
|----------------|----------------------| 
|--8--7-8--------|----------------------| 
|---------7-10-8-|--------------------7-| 
|----------------|-{10}----(10)----10---| 
|----------------|--------------10------| 
|----------------|----------------------| 
| 
|----------------|----------------------| 
|----------------|----------------------| 
|----------------|---5------------------| 
|----------------|---5------------------| 
|----------------|---3------------------| 
|----------------|----------------------| 
 
 
  G5                             C5 
        \1/  \1/  \1/ 
                                  ~~ 
|------------------------------|---------------------------| 
|------------------------------|---------------------------| 
|-(7)--(7)--(7)--(7)--7b8r=(7)-|---------------------------| 
|------------------------------|-10----(10)----------------| 
|------------------------------|------------10p9p8S7-------| 
|------------------------------|---------------------11p10-| 
| 
|------------------------------|---------------------------| 
|------------------------------|---------------------------| 
|------------------------------|--5------------------------| 
|--5---------------------------|--5------------------------| 
|--5---------------------------|--3------------------------| 
|--3---------------------------|---------------------------| 
 
 
  G5                  C5 
                        ~~~~ 
|-------------------|--------------------------| 
|-----8--7-8--------|--------------------------| 
|---x--------7-10-8-|--------------------7-7b9-| 
|-x-----------------|-{10}----(10)----10-------| 
|-------------------|--------------10----------| 
|-------------------|--------------------------| 
| 
|-------------------|--------------------------| 
|-------------------|--------------------------| 
|-------------------|---5----------------------| 
|-5-----------------|---5----------------------| 
|-5-----------------|---3----------------------| 
|-3-----------------|--------------------------| 
 
 
  G5                                   C5     Bb5 
                                        ~~ 
|------------------------------------|--------------------------| 
|------------------------------------|--------------------------| 
|-7-7b9-7-7b9-7-7b9==(7)--(7)r(7)----|------7-8-10b12r=(10)b11==| 
|---------------------------------10-|-10-----------------------| 
|------------------------------------|--------------------------| 
|------------------------------------|--------------------------| 
| 
|------------------------------------|--------------------------| 
|------------------------------------|--------------------------| 
|------------------------------------|--5-----3-----------------| 
|-5----------------------------------|--5-----3-----------------| 
|-5----------------------------------|--3-----1-----------------| 
|-3----------------------------------|--------------------------| 
 
 
  Eb5                            Bb5           G/B 
|------------------------------|-------------------------------| 
|------------------------------|-------------------------------| 
|-(10)pb12----(10)pb12---(10)r-|-10-8-10-10b12-10b12-10b12-10--| 
|------------------------------|-------------------------------| 
|------------------------------|-------------------------------| 
|------------------------------|-------------------------------| 
| 
|------------------------------|-------------------------------| 
|------------------------------|-------------------------------| 
|---8--------------------------|--3-------------4--------------| 
|---8--------------------------|--3-------------5--------------| 
|---6--------------------------|--1-------------2--------------| 
|------------------------------|-------------------------------| 
 
 
  C5 
|-----------------------------------------| 
|-----------------------------------------| 
|-8-10-8-7-8-7h8p7--10p8p7----8p7----7----| 
|--------------------------10-----10---10-| 
|-----------------------------------------| 
|-----------------------------------------| 
| 
|-----------------------------------------| 
|-----------------------------------------| 
|-5---------------------------------------| 
|-5---------------------------------------| 
|-3---------------------------------------| 
|-----------------------------------------| 
 
 
 Guitar Solo 2 
  G5 
|-------------------------------------------------------| 
|---4p3---4p3---3---------------------------------------| 
|-------5-----5---5p(0)---------------------------------| 
|-----------------------6p5p3-5p3---3-5p3---3h5p3---3-5-| 
|---------------------------------6-------6-------6-----| 
|-------------------------------------------------------| 
| 
|-------------------------------------------------------| 
|-------------------------------------------------------| 
|-------------------------------------------------------| 
|-5-----------------------------------------------------| 
|-5-----------------------------------------------------| 
|-3-----------------------------------------------------| 
 
 
                                                  Q 
|-------------------------------------------------| 
|-----------------------------------------------3-| 
|-------------------------------------------4-5---| 
|-----3-5-----------------------------3-5-6-------| 
|--6------6-6-6-6-5-3-3-2-3-3-3-5-6-6-------------| 
|-------------------------------------------------| 
| 
|-------------------------------------------------| 
|-------------------------------------------------| 
|-------------------------------------------------| 
|-(5)---------------------------------------------| 
|-(5)---------------------------------------------| 
|-(3)---------------------------------------------| 
 
 
 =95 
                        ~~~ 
|------------------------------------| 
|--4--6-6b8==(6)r(6)b8-(6)---4h6p4S==| 
|------------------------------------| 
|------------------------------------| 
|------------------------------------| 
|------------------------------------| 
| 
|------------------------------------| 
|------------------------------------| 
|------------------------------------| 
|-(5)--------------------------------| 
|-(5)--------------------------------| 
|-(3)--------------------------------| 
 
 
  Q=117 
|---------------------------------------------| 
|--3h=4p3---4p3---3h6p4p3---4p3---3-----------| 
|---------5-----5---------5-----5---5-4-------| 
|---------------------------------------6-5-3-| 
|---------------------------------------------| 
|---------------------------------------------| 
| 
|---------------------------------------------| 
|---------------------------------------------| 
|---------------------------------------------| 
|-(5)-----------------------------------------| 
|-(5)-----------------------------------------| 
|-(3)-----------------------------------------| 
 
 
                                          PM 
|---------------------------------------------| 
|---------------------------------------------| 
|---------------------------------------------| 
|--5p=3-5p3---3h5p3---3h5p3---3h5p3---{3}-----| 
|-----------6-------6-------6-------6-----6---| 
|---------------------------------------------| 
| 
|---------------------------------------------| 
|---------------------------------------------| 
|---------------------------------------------| 
|-(5)-----------------------------------------| 
|-(5)-----------------------------------------| 
|-(3)-----------------------------------------| 
 
 
                              \2____________| 
  PM------------|                           ~ 
|-----------------|------------------|-----------| 
|-----------------|------------------|-----------| 
|-----------------|------------------|-----------| 
|-----------------|------------------|-----------| 
|-5-3-2-3-2-5-3-2-|------------------|-----------| 
|-----------------|-4-3-1h3p1-0------|-0----0----| 
 
 
  Q=90 
   PM---| 
|-------10-13p10-------10-------------10-------------10-------------10-15b17-x-x\-| 
|----11-------------11----14p11----11----14p11----11----14p11----11---------------| 
|-12-------------12-------------12-------------12-------------12------------------| 
|---------------------------------------------------------------------------------| 
|---------------------------------------------------------------------------------| 
|---------------------------------------------------------------------------------| 
 
 
|-----------------------------------------------| 
|-----3--4p2-5p4-6p5h6-7p6p0-8p7p0-9p8p0-10p9p0-| 
|---x-------------------------------------------| 
|-x---------------------------------------------| 
|-----------------------------------------------| 
|-----------------------------------------------| 
 
 
                                                                        ~~~~ 
|-------------------------------------------------------|-14-15-------------------| 
|-11p10p0-12p11p0-13p12p0-14p13p0-15p=0-15p=0-16--17-18-|-------18b20-(18)--------| 
|---------------------------------(0)---(0)---(0)-------|-------------------x\----| 
|-------------------------------------------------------|-------------------x\----| 
|-------------------------------------------------------|-------------------x\----| 
|-------------------------------------------------------|-------------------------| 
 
 
  Q=117 
        ~~~~~ 
|-------------------|-------------------| 
|-------8--7--8--7--|-8-7-8-7-8-7-{8}-7-| 
|-----x-------------|-------------------| 
|---x---------------|-------------------| 
|-x-----------------|-------------------| 
|-------------------|-------------------| 
 
 
                                                ~ 
|---------------------------------------------|-------------------| 
|-8-7-{8}-{7}-{8}-{7}-{8}-{7}-{8}-{7}-{8}-{7}-|-8----(8)\---------| 
|---------------------------------------------|-----------7-10-8--| 
|---------------------------------------------|-------------------| 
|---------------------------------------------|-------------------| 
|---------------------------------------------|-------------------| 
 
 
 Interlude 2 
  C5                   G5 
  Gtr III 
|--------------------|----------------------| 
|--------------------|----------------------| 
|------------------7-|-7---7b9-(7)-7b9r=(7)-| 
|-10----(10)----10---|----------------------| 
|------------10------|----------------------| 
|--------------------|----------------------| 
| 
| Gtr IV 
|--------------------|----------------------| 
|--------------------|----------------------| 
|--5-----------------|----------------------| 
|--5-----------------|-5--------------------| 
|--3-----------------|-5--------------------| 
|--------------------|-3--------------------| 
 
 
  C5    Bb5           Eb5 
|-------------------|---------------------------------| 
|-------------------|---------------------------------| 
|------------7-8-10-|-10b12=====(10)r-10pb12==(10)r---| 
|-10----(10)--------|---------------------------------| 
|-------------------|---------------------------------| 
|-------------------|---------------------------------| 
| 
|-------------------|---------------------------------| 
|-------------------|---------------------------------| 
|--5------3---------|--8------------------------------| 
|--5------3---------|--8------------------------------| 
|--3------1---------|--6------------------------------| 
|-------------------|---------------------------------| 
 
 
  Bb5         G/B                       C5 
   ~~                                   ~ 
|-------------------------------------|--------------------------| 
|-------------------------------------|--------------------------| 
|-10---10b12==(10)r(10)b12==(10)r(10)-|-8---8-10-8-10-8h10p8-7h8-| 
|-------------------------------------|--------------------------| 
|-------------------------------------|--------------------------| 
|-------------------------------------|--------------------------| 
| 
|-------------------------------------|--------------------------| 
|-------------------------------------|--------------------------| 
|--3------------4---------------------|-5------------------------| 
|--3------------5---------------------|-5------------------------| 
|--1------------2---------------------|-3------------------------| 
|-------------------------------------|--------------------------| 
 
 
  G5 
                                            ~~~ 
|------------------------------------------------| 
|------------------------------------------------| 
|-7h8p7----7h8p7-10p8p7----8p7----8p7------------| 
|-------10--------------10-----10-----10p9-{9}---| 
|------------------------------------------------| 
|------------------------------------------------| 
| 
|------------------------------------------------| 
|------------------------------------------------| 
|------------------------------------------------| 
|-5----------------------------------------------| 
|-5----------------------------------------------| 
|-3----------------------------------------------| 
 
 
  G5 
      PM| 
|------------------------------------| 
|-------x-8-9-8h9p8h9p8h9p8h9p8h9----| 
|-----x------------------------------| 
|-(9)--------------------------------| 
|---------------------------------x\-| 
|---------------------------------x\-| 
| 
|------------------------------------| 
|------------------------------------| 
|------------------------------------| 
|--5---------------------------------| 
|--5---------------------------------| 
|--3---------------------------------| 
 
 
  G5 
  PM| 
|------------------------------------------------------------| 
|-----15-16-15h16p15----16p15----15----15h16p15----15h16p15--| 
|---x----------------17-------17----17----------17-----------| 
|-x----------------------------------------------------------| 
|------------------------------------------------------------| 
|------------------------------------------------------------| 
| 
|------------------------------------------------------------| 
|------------------------------------------------------------| 
|------------------------------------------------------------| 
|-5----------------------------------------------------------| 
|-5----------------------------------------------------------| 
|-3----------------------------------------------------------| 
 
 
|--------------------15-16-18-18b20r====(18)-|| 
|-----15----15-16-18-------------------------|| 
|-17-----17----------------------------------|| 
|--------------------------------------------|| 
|--------------------------------------------|| 
|--------------------------------------------|| 
| 
| Gtrs IV, V 
|--------------------------------------------|| 
|--------------------------------------------|| 
|--------------------------------------------|| 
|-(5)----------------------------------------|| 
|-(5)----------------------------------------|| 
|-(3)-------------------------------3-4------|| 
 
 
 Chorus 
                     D.S. al Coda   & 
  A5                                G5 
   ~~~~~~ 
|-18pb20-------------------------||------------| 
|--------------------------------||------------| 
|--------------------------------||------------| 
|--------------------------------||------------| 
|--------------------------------||------------| 
|--------------------------------||------------| 
| 
|                    PM--------|             ~ 
|--------------------------------||------------| 
|--------------------------------||------------| 
|--2-----x-0-(0)-x-2-------------||------------| 
|--2-----x-0-(0)-x-2-------------||-5----------| 
|--0-----------------0-0-0-0-0-0-||-5----------| 
|--------------------------------||-3------3-4-| 
 
 
  A5 
  Gtrs III, IV 
                PM--------|     PM      PM  PM--------| 
|---------------------------|---------------------------| 
|---------------------------|---------------------------| 
|-2-x-0-(0)-x-2-------------|-5---4-(4)---5-------------| 
|-2-x-0-(0)-x-2-------------|-7---5-(5)---7-------------| 
|-0-------------0-0-0-0-0-0-|---0-------0---0-0-0-0-0-0-| 
|---------------------------|---------------------------| 
 
 
                       A5   G5 
     PM      PM                            ~ 
|-------------------------|------------------| 
|-------------------------|------------------| 
|--9---7-(7)---10--9\--2--|------------------| 
|-10---9-(9)---10-10\--2--|-5----------------| 
|----0-------0---------0--|-5----------------| 
|-------------------------|-3----0-3-3-0-3-4-| 
 
 
                                                        H 
  A5 
  Gtr III 
                PM--------|     PM      PM  PM--------| 
|---------------------------|---------------------------| 
|---------------------------|---------------------------| 
|-2---0-(0)---2-------------|-5---4-(4)---5-------------| 
|-2---0-(0)---2-------------|-7---5-(5)---7-------------| 
|-0-0-------0---0-0-0-0-0-0-|---0-------0---0-0-0-0-0-0-| 
|---------------------------|---------------------------| 
| 
| Gtr IV 
|               PM--------|     PM      PM  PM--------| 
|---------------------------|---------------------------| 
|---------------------------|---------------------------| 
|-2---0-(0)---2-------------|-5---4-(4)---5-------------| 
|-2---0-(0)---2-------------|-7---5-(5)---7-------------| 
|-0-0-------0---0-0-0-0-0-0-|---0-------0---0-0-0-0-0-0-| 
|---------------------------|---------------------------| 
 
 
                    Outro 
 .=H              FreH=Hempo ca Q=80 
               A5    G5 
|-----------------||--------------------| 
|-----------------||------------8--7----| 
|--9-7-10--9\--2--||----------x---------| 
|-10-9-10-10\--2--||--------x-----------| 
|--------------0--||------x-------------| 
|-----------------||--------------------| 
| 
|                    Gtrs IV, V 
|-----------------||--------------------| 
|-----------------||--------------------| 
|--9-7-10--9\--2--||--------------------| 
|-10-9-10-10\--2--||-5------------------| 
|--------------0--||-5------------------| 
|-----------------||-3------------------| 
 
 
                                         Q 
|-----------------|----------------------| 
|--8---7--8-7-8-7-|--8--7-8-7-8-7-8-7b8==| 
|-----------------|----------------------| 
|-----------------|----------------------| 
|-----------------|----------------------| 
|-----------------|----------------------| 
| 
|-----------------|----------------------| 
|-----------------|----------------------| 
|-----------------|----------------------| 
|-(5)-------------|-(5)------------------| 
|-(5)-------------|-(5)------------------| 
|-(3)-------------|-(3)------------------| 
 
 
 =160                         Q=130 
                                A5 G5     A5 
   ~~~~~~~~~~~~~~~~ 
|------------|----------------|-----------------*| 
|-(7)--------|-(7)-------(7)r-|-----------------*| 
|------------|----------------|-2---------2-----*| 
|------------|----------------|-2--5-(5)--2-----*| 
|------------|----------------|-0--5-(5)--0-----*| 
|------------|----------------|----3-(3)--------*| 
| 
|                             Gtr IV 
|------------|----------------|-----------------*| 
|------------|----------------|-----------------*| 
|------------|----------------|-2---------2-----*| 
|-(5)--------|-(5)------------|-2--5-(5)--2-----*| 
|-(5)--------|-(5)------------|-0--5-(5)--0-----*| 
|-(3)--------|-(3)------------|----3-(3)--------*|
Composição de Accept / Deaffy
Colaboração e revisão:
  • alexandre
8.468 exibições
    • ½ Tom
    • A
    • Bb
    • B
    • C
    • Db
    • D
    • Eb
    • E
    • F
    • F#
    • G
    • Ab
  • Adicionar à lista

    0 comentários

    Ver todos os comentários

    Conseguiu tocar?

    0 Tocaram 0 Ainda não

    Grave um vídeo tocando Metal Heart e nos envie!

    00:00 / 00:00
    outros vídeos desta música
    repetir qualidade Automático
    Outros vídeos desta música
    00:00 / 00:00
    Automático

    Cifra Club Pro

    Aproveite o Cifra Club com benefícios exclusivos e sem anúncios
    Cifra Club Pro
    Aproveite o Cifra Club com benefícios exclusivos e sem anúncios
    OK