Cifra Club

Aprenda

Midnight Highway

Accept

Cifra: Principal (violão e guitarra)
tom: D
Words and Music by Dirkschneider, Hoffman, Baltes, Fischer & Kaufmann

Gtr I (E A D G B E) - 'Untitled'
Gtr II (E A D G B E) - 'Untitled'
Gtr III (E A D G B E) - 'Bass'

 Intro
  Moderately Fast Rock Q=140
 4/4
  Gtr I
    E  E  E  E  E  E  E  E    E  E  E  E  E  E  E  E
|-------------------------|-------------------------|
|-12p10-12p10-12p10-12p10-|-12p10-12p10-12p10-12p10-|
|-12p11-12p11-12p11-12p11-|-12p11-12p11-12p11-12p11-|
|-------------------------|-------------------------|
|-------------------------|-------------------------|
|-------------------------|-------------------------|
|
| Gtr II
|  W                         W
|-------------------------|-------------------------|
|-------------------------|-------------------------|
|-------------------------|-------------------------|
|-------------------------|-------------------------|
|-------------------------|-------------------------|
|-------------------------|-------------------------|
|
| Gtr III
|  W                         W
|-------------------------|-------------------------|
|-------------------------|-------------------------|
|-------------------------|-------------------------|
|-------------------------|-------------------------|
|--5----------------------|--3----------------------|
|-------------------------|-------------------------|

    E  E  E   E   E  E   E    E
|------------------------------|
|-12p10-12p=10--12p10--12p==10-|
|-12p11-12p=11--12p11--12p==11-|
|------------------------------|
|------------------------------|
|------------------------------|
|
|  Q.        Q.        +Q
|----------(12)-------(12)\----|
|------------------------------|
|------------------------------|
|------------------------------|
|------------------------------|
|------------------------------|
|
|  W
|------------------------------|
|------------------------------|
|------------------------------|
|------------------------------|
|--5---------------------------|
|------------------------------|

    E   E  E  E   E  E  E  E        E   E  E  E  E     E   E  E
|-------------------------------|------------------------------|
|-12p=10-12p10--12p10-12p10-----|-12p=10-12p10-12p===10--12p10-|
|-12p=11-12p11--12p11-12p11-----|-12p=11-12p11-12p===11--12p11-|
|-------------------------------|------------------------------|
|-------------------------------|------------------------------|
|-------------------------------|------------------------------|
|
|                         \2.5_____|            \2.5____________
|  H..                    E       +H            E    +Q.
|-------------------------------|------------------------------|
|-------------------------------|------------------------------|
|-------------------------------|------------------------------|
|-------------------------------|------------------------------|
|-------------------------------|------------------------------|
|-------------------------0-----|-(0)-----------0----(0)-------|
|
|  Q.        Q.        Q           W
|-------------------------------|------------------------------|
|-------------------------------|------------------------------|
|-------------------------------|------------------------------|
|-------------------------------|------------------------------|
|-------------------------------|--5---------------------------|
|--0---------2---------3--------|------------------------------|

   E   E  E     E   E  E  E  E        E   E  E     E   E  E  E     E     E   E  E  E H
|----------------------------------|----------------------------------|-----------------------||
|-12p=10-12p===10--12p10-12p10-----|-12p=10-12p===10--12p10-12p===10--|-12p=10-12p10----------||
|-12p=11-12p===11--12p11-12p11-----|-12p=11-12p===11--12p11-12p===11--|-12p=11-12p11-x\-------||
|----------------------------------|----------------------------------|--------------x\-------||
|----------------------------------|----------------------------------|-----------------------||
|----------------------------------|----------------------------------|-----------------------||
|
|  |      \2.5__|            \2.5_____|      \2.5__|         \2.5__/
| +Q      E    +H            E       +Q      E    +Q.        E    +E    +H.              +Q
|----------------------------------|----------------------------------|-----------------------||
|----------------------------------|----------------------------------|-----------------------||
|----------------------------------|----------------------------------|-----------------------||
|----------------------------------|----------------------------------|-----------------------||
|----------------------------------|----------------------------------|-----------------------||
|-(0)-----0----(0)-----------0-----|-(0)-----0----(0)--------0----(0)-|-(0)--------------(0)--||
|
|  W                                  W                                  W
|----------------------------------|----------------------------------|-----------------------||
|----------------------------------|----------------------------------|-----------------------||
|----------------------------------|----------------------------------|-----------------------||
|----------------------------------|----------------------------------|-----------------------||
|--3-------------------------------|--5-------------------------------|--5--------------------||
|----------------------------------|----------------------------------|-----------------------||


 Pre-Verse
  E E Q.   E E E   +Q   Q  Q  Q    E E H.        Q.   E H
|----------------|---------------|-------------|-------------|
|----------------|---------------|-------------|-------------|
|----------------|---------------|-------------|-------------|
|----------2-4-5-|-(5)--4--5--4--|-7---7-------|-9----7-5----|
|-5---5----0-2-3-|-(3)--2--3--2--|-5---5-------|-7----5-3----|
|-3---3----------|---------------|-------------|-------------|

  E E Q.    s  s E E   +Q   Q  Q  Q    E E H.        Q.   E Q..   +S
|--------------------|---------------|-------------|--------------------||
|--------------------|---------------|-------------|--------------------||
|--------------------|---------------|-------------|--------------------||
|----------(2)-2-4-5-|-(5)--4--5--4--|-7---7-------|-5----7-9-----(9)\--||
|-5---5----(0)-0-2-3-|-(3)--2--3--2--|-5---5-------|-3----5-7-----(7)\--||
|-3---3--------------|---------------|-------------|--------------------||


   Verse
    $
     Q  Q.   E E E   +Q   Q.   E E E   +Q   E Q.   E E
||----------------|-----------------|-----------------|
||o---------------|-----------------|-----------------|
||----------------|-----------------|-----------------|
||----------5---7-|-(7)-------7---9-|-(9)----5------7-|
||o-5-------3---5-|-(5)-------5---7-|-(7)----3------5-|
||--3-------------|-----------------|-----------------|


  1.,2.,3.           4.
                         PM----------|
   +H.      +Q        +E  E E E E E E E
|-----------------||---------------------||
|----------------o||---------------------||
|-----------------||---------------------||
|-(7)------(7)\---||-(7)-----------------||
|-(5)------(5)\--o||-(5)-----------------||
|-----------------||-----0-2-3-5-3-2-0---||


 Pre-Chorus
  PM--------|       PM--------|       PM--------|      PM----|
   E E E E E E E E   E E E E E E E E   E E E E E E Q    E E E E E E E E
|-----------------|-----------------|----------------|-----------------|
|-----------------|-----------------|----------------|-----------------|
|-----------------|-----------------|----------------|-----------------|
|-------------7-7-|-------------5-5-|-------------7--|-----------------|
|-5-5-5-5-5-5-5-5-|-3-3-3-3-3-3-3-3-|-5-5-5-5-5-5-5--|-3-3-3-3-3-2-----|
|-----------------|-----------------|----------------|-------------5-3-|


                                                                   To Coda
                                  PM--------------------------------------|
  Q.   H    +E    Q.   H    +E    E E E E E E E E    E  E  E  E  E  E  Q
|---------------|---------------|-----------------|-------------------------||
|---------------|---------------|-----------------|-------------------------||
|---------------|---------------|-----------------|-12p11h12p11h12p11h12\---||
|-9----9----(9)-|-5----5----(5)-|-----------------|-------------------------||
|-7----7----(7)-|-3----3----(3)-|-5-5-5-5-5-5-5-5-|--5--5--5--5--5--5--5--5-||
|---------------|---------------|-----------------|-------------------------||
                                                     E  E  E  E  E  E  E  E


 Chorus
  Gtr I
  E E Q.   E E E   +Q   Q  Q  Q
|----------------|---------------|
|----------------|---------------|
|----------------|---------------|
|----------2-4-5-|-(5)--4--5--4--|
|-5---5----0-2-3-|-(3)--2--3--2--|
|-3---3----------|---------------|
|
| Gtr II
| W                 W
|----------------|---------------|
|----------------|---------------|
|----------------|---------------|
|----------------|---------------|
|----------------|---------------|
|----------------|---------------|

  E E H.                      Q.              E       H
|--------------------------|-------------------------------|
|--------------------------|-------------------------------|
|--------------------------|-------------------------------|
|-7---7--------------------|--9---------------7-------5----|
|-5---5--------------------|--7---------------5-------3----|
|--------------------------|-------------------------------|
|
|                                 |--3--|
| H        S  +S   E  E  E    E   S  S  S  E  S  +S   H
|--------------------------|-------------------------------|
|---------15-(15)s13-------|-------------------------------|
|--------------------16-14-|-16--14h16p14------------------|
|--------------------------|--------------17-16-(16)s17----|
|--------------------------|-------------------------------|
|--------------------------|-------------------------------|

  E E Q.   E E E   +Q   Q  Q  Q    E E H.
|----------------|---------------|--------------------------|
|----------------|---------------|--------------------------|
|----------------|---------------|--------------------------|
|----------2-4-5-|-(5)--4--5--4--|-7---7--------------------|
|-5---5----0-2-3-|-(3)--2--3--2--|-5---5--------------------|
|-3---3----------|---------------|--------------------------|
|
| W                 W              H        S  +S   E  E  E
|----------------|---------------|--------------------------|
|----------------|---------------|---------15-(15)s13-------|
|----------------|---------------|--------------------16-14-|
|----------------|---------------|--------------------------|
|----------------|---------------|--------------------------|
|----------------|---------------|--------------------------|


                      D.S. al Coda
   Q.            E            H
|-------------------------------------||
|-------------------------------------||
|-------------------------------------||
|--5-------------7------------9-------||
|--3-------------5------------7-------||
|-------------------------------------||
|
|                             ~~~~~
|  E   S  S   E  S  +S       +H
|---------------14-(14)b15==(14)r-----||
|-------------------------------------||
|-16--16p14---------------------------||
|-----------h17-----------------------||
|-------------------------------------||
|-------------------------------------||


 Chorus
  &
  E E Q.   E E E   +Q   Q  Q  Q    E E H.
|----------------|---------------|--------------------------|
|----------------|---------------|--------------------------|
|----------------|---------------|--------------------------|
|----------2-4-5-|-(5)--4--5--4--|-7---7--------------------|
|-5---5----0-2-3-|-(3)--2--3--2--|-5---5--------------------|
|-3---3----------|---------------|--------------------------|
|
| W                 W              H        S  +S   E  E  E
|----------------|---------------|--------------------------|
|----------------|---------------|---------15-(15)s13-------|
|----------------|---------------|--------------------16-14-|
|----------------|---------------|--------------------------|
|----------------|---------------|--------------------------|
|----------------|---------------|--------------------------|

   Q.              E       H
|-----------------------------------|
|-----------------------------------|
|-----------------------------------|
|--9---------------7-------5--------|
|--7---------------5-------3--------|
|-----------------------------------|
|
|      |--3--|
|  E   S  S  S  E  S  +S   Q.    E
|-----------------------------------|
|-----------------------------------|
|-16--14h16p14----------------------|
|--------------17-16-(16)s17----17s=|
|-----------------------------------|
|-----------------------------------|

   E E Q.   E E E    +Q   Q  Q  Q    E E H.
|-----------------|----------------|--------------------------|
|-----------------|----------------|--------------------------|
|-----------------|----------------|--------------------------|
|-----------2-4-5-|--(5)--4--5--4--|-7---7--------------------|
|--5---5----0-2-3-|--(3)--2--3--2--|-5---5--------------------|
|--3---3----------|----------------|--------------------------|
|
|  W                 +W              H        S  +S   E  E  E
|-----------------|----------------|--------------------------|
|-----------------|----------------|---------15-(15)s13-------|
|-----------------|----------------|--------------------16-14-|
|-12--------------|-(12)-----------|--------------------------|
|-----------------|----------------|--------------------------|
|-----------------|----------------|--------------------------|

   Q.            E            H
|-----------------------------------||
|-----------------------------------||
|-----------------------------------||
|--5-------------7------------9-----||
|--3-------------5------------7-----||
|-----------------------------------||
|
|                             ~~~~
|  E   S  S   E  S  +S       +H
|---------------14-(14)b15==(14)----||
|-----------------------------------||
|-16--16p14-------------------------||
|-----------h17---------------------||
|-----------------------------------||
|-----------------------------------||


 Bridge
     E   Q  E Q  E E    H..       E
|-------------------|--------------|
|-------------------|--------------|
|-------------------|--------------|
|---5------7----9-9-|------------5-|
|---3------5----7-7-|------------3-|
|-------------------|--------------|
|
|   ~~~~~
|  +W                  W
|-(14)r-------------|--------------|
|-------------------|--------------|
|-------------------|-17\----------|
|-------------------|-17\----------|
|-------------------|--------------|
|-------------------|--------------|

   +E   E E +E  E E E E    +E    H..
|-----------------------|--------------------------|
|-----------------------|--------------------------|
|-----------------------|--------------------------|
|--(5)--5-4-(4)-2-----7-|--(7)---------------------|
|--(3)--3-2-(2)-0-5-2-5-|--(5)---------------------|
|-----------------3-0---|--------------------------|
|
|                                |-----5:7-----|
|  +W                       E    e    e  e  e  e
|-----------------------|------------14-15-14------|
|-----------------------|-------17------------17---|
|-(17)\-----------------|-(17)\--------------------|
|-(17)\-----------------|-(17)\--------------------|
|-----------------------|--------------------------|
|-----------------------|--------------------------|
                           +W


   E       Q     E  Q   E  E    W
|----------------------------|-------------------------------|
|----------------------------|-------------------------------|
|----------------------------|-------------------------------|
|--5-------------7------9--9-|-------------------------------|
|--3-------------5------7--7-|-------------------------------|
|----------------------------|-------------------------------|
|
|                ~~~
|  E      +Q     Q.     E  E    E  E  E     +S   S  Q   E  E
|----------------------------|-------------------------------|
|-15b17==(15)r--15-----12-13-|-12----------------------------|
|----------------------------|----14-14b16r(14)p12-14--12p11-|
|----------------------------|-------------------------------|
|----------------------------|-------------------------------|
|----------------------------|-------------------------------|

   Q          Q     Q        Q
|------------------------------------||
|------------------------------------||
|------------------------------------||
|--5----------4-----2----------------||
|--3----------2-----0--------5-------||
|----------------------------3-------||
|
|                   |--3--|  |--3--|
|  E     +E   E  E  E  E  E  E  E  E
|------------------------------------||
|---------------------------12h13h15-||
|-11b12r(11)-------11h12h14----------||
|------------12-14-------------------||
|------------------------------------||
|------------------------------------||


 Guitar Solo
  Gtr I
   W
|------------------------------|
|------------------------------|
|------------------------------|
|--7---------------------------|
|--5---------------------------|
|------------------------------|
|
| Gtr II
|  E  E  E  E      +Q     E  E
|-12-14-15-15b17==(15)r--15-14-|
|------------------------------|
|------------------------------|
|------------------------------|
|------------------------------|
|------------------------------|
|
| Gtr III
|  W
|------------------------------|
|------------------------------|
|------------------------------|
|------------------------------|
|--5---------------------------|
|------------------------------|

   W                                                   W
|---------------------------------------------------|---------------------|
|---------------------------------------------------|---------------------|
|---------------------------------------------------|---------------------|
|--5------------------------------------------------|--7------------------|
|--3------------------------------------------------|--5------------------|
|---------------------------------------------------|---------------------|
|
|                                                            ~~
|  |--3--|                                  |--3--|
|  S  S  S  S  S  E  S  S   S   E  S  S  S  S  S  S    E  E  H     +Q
|-12h14p12----12------------------------------------|---------------------|
|----------15----15p12-15p(12)-12-------------------|---------------------|
|---------------------------------14p12p11h12p11----|-11------------------|
|------------------------------------------------14-|----14-12----(12)\---|
|---------------------------------------------------|---------------------|
|---------------------------------------------------|---------------------|
|
|  W                                                   W
|---------------------------------------------------|---------------------|
|---------------------------------------------------|---------------------|
|---------------------------------------------------|---------------------|
|---------------------------------------------------|---------------------|
|--3------------------------------------------------|--5------------------|
|---------------------------------------------------|---------------------|

  Q.           Q.           Q
|---------------------------------|
|---------------------------------|
|---------------------------------|
|---------------------------------|
|-2------------4------------5-----|
|-0------------2------------3-----|
|
| S  S S S S S S  S S S S S S S E
|---------------------------------|
|---------------------------------|
|-------------------------------2-|
|-------------------2-5-4-2-4-5---|
|--------2h5p2-4--5---------------|
|-0--2-3--------------------------|
|
| Q.           Q.           Q
|---------------------------------|
|---------------------------------|
|---------------------------------|
|---------------------------------|
|---------------------------------|
|-0------------2------------3-----|

  W                              W
|-----------------------------|------------------------------|
|-----------------------------|------------------------------|
|-----------------------------|------------------------------|
|-7---------------------------|--5---------------------------|
|-5---------------------------|--3---------------------------|
|-----------------------------|------------------------------|
|
| |-3-| |-3-|  |-3-|  |--3--|
| E E E E E E  E E E  E  E  E    H        Q.       +E     a
|----------------7-9-10-12-10-|-12b14----12b14====(12)r=(12)-|
|---------7-8-10--------------|------------------------------|
|-4s6-7-9---------------------|------------------------------|
|-----------------------------|------------------------------|
|-----------------------------|------------------------------|
|-----------------------------|------------------------------|
|
| W                              W
|-----------------------------|------------------------------|
|-----------------------------|------------------------------|
|-----------------------------|------------------------------|
|-----------------------------|------------------------------|
|-5---------------------------|--3---------------------------|
|-----------------------------|------------------------------|


                          PM------------------------------------|
   W                      E     E     E     E     E     E     E +E
|----------------------|---------------------------------------------||
|----------------------|---------------------------------------------||
|----------------------|---------------------------------------------||
|--7-------------------|---------------------------------------------||
|--5-------------------|--5-----5-----5-----5-----5-----5-----5-(5)\-||
|----------------------|---------------------------------------------||
|
|                 ~~                                          ~~
|  Q.    S  S  a  H       S  S  S  S  S  S  S  S  S  S  S  S  Q
|-14----12-------------|----------------------------17h19h21-22------||
|----------12-12s15----|-------------------17h19h20------------------||
|----------------------|----------16h18h19---------------------------||
|----------------------|-16h17h19------------------------------------||
|----------------------|---------------------------------------------||
|----------------------|---------------------------------------------||
|
|  W                      E     E     E     E     E     E     E +E
|----------------------|---------------------------------------------||
|----------------------|---------------------------------------------||
|----------------------|---------------------------------------------||
|----------------------|---------------------------------------------||
|--5-------------------|--5-----5-----5-----5-----5-----5-----5-(5)\-||
|----------------------|---------------------------------------------||


 Chorus
  Gtr I
  E E Q.   E E E   +Q   Q  Q  Q    E E H.
|----------------|---------------|--------------------------|
|----------------|---------------|--------------------------|
|----------------|---------------|--------------------------|
|----------2-4-5-|-(5)--4--5--4--|-7---7--------------------|
|-5---5----0-2-3-|-(3)--2--3--2--|-5---5--------------------|
|-3---3----------|---------------|--------------------------|
|
| Gtr II
| W                 W              H        S  +S   E  E  E
|----------------|---------------|--------------------------|
|----------------|---------------|---------15-(15)s13-------|
|----------------|---------------|--------------------16-14-|
|----------------|---------------|--------------------------|
|----------------|---------------|--------------------------|
|----------------|---------------|--------------------------|

   Q.              E       H
|-----------------------------------|
|-----------------------------------|
|-----------------------------------|
|--9---------------7-------5--------|
|--7---------------5-------3--------|
|-----------------------------------|
|
|      |--3--|
|  E   S  S  S  E  S  +S   Q.    E
|-----------------------------------|
|-----------------------------------|
|-16--14h16p14----------------------|
|--------------17-16-(16)s17----17s=|
|-----------------------------------|
|-----------------------------------|

   E E Q.   E E E    +Q   Q  Q  Q
|-----------------|----------------|
|-----------------|----------------|
|-----------------|----------------|
|-----------2-4-5-|--(5)--4--5--4--|
|--5---5----0-2-3-|--(3)--2--3--2--|
|--3---3----------|----------------|
|
|  W                 +W
|-----------------|----------------|
|-----------------|----------------|
|-----------------|----------------|
|-12--------------|-(12)-----------|
|-----------------|----------------|
|-----------------|----------------|

  E E H.                      Q.            E  H
|--------------------------|--------------------------|
|--------------------------|--------------------------|
|--------------------------|--------------------------|
|-7---7--------------------|--5-------------7--9------|
|-5---5--------------------|--3-------------5--7------|
|--------------------------|--------------------------|
|
|                                                  ~~
| H        S  +S   E  E  E    E   S  S   E  E  Q   Q
|--------------------------|--------------------------|
|---------15-(15)s13-------|--------------------------|
|--------------------16-14-|-16--16p14------------19--|
|--------------------------|-----------h17-16-17------|
|--------------------------|--------------------------|
|--------------------------|--------------------------|

    E  E Q.        E E E   +Q   Q  Q  Q
|------------------------|---------------|
|------------------------|---------------|
|------------------------|---------------|
|------------------2-4-5-|-(5)--4--5--4--|
|---5----5---------0-2-3-|-(3)--2--3--2--|
|---3----3---------------|---------------|
|
|   ~~~~~~~~~~~~~~~
|  +H         +H            W
|------------------------|---------------|
|------------------------|---------------|
|-(19)-------(19)\-------|---------------|
|------------------------|---------------|
|------------------------|---------------|
|------------------------|---------------|

  E E H.                        Q.               E       H
|----------------------------|-----------------------------------------|
|----------------------------|-----------------------------------------|
|----------------------------|-----------------------------------------|
|-7---7----------------------|--9----------------7-------5-------------|
|-5---5----------------------|--7----------------5-------3-------------|
|----------------------------|-----------------------------------------|
|
| H        e  +S   e  +S   e    e   +S   e  +S   S  +S   Q.    +S   S
|----------------------------|-17--(17)---------17-(17)s19----(19)s17s=|
|---------17-(17)-19-(19)-20-|----------20-(20)------------------------|
|----------------------------|-----------------------------------------|
|----------------------------|-----------------------------------------|
|----------------------------|-----------------------------------------|
|----------------------------|-----------------------------------------|

   E E Q.   E E E   +Q   Q  Q  Q    E E H.
|-----------------|---------------|--------------------------|
|-----------------|---------------|--------------------------|
|-----------------|---------------|--------------------------|
|-----------2-4-5-|-(5)--4--5--4--|-7---7--------------------|
|--5---5----0-2-3-|-(3)--2--3--2--|-5---5--------------------|
|--3---3----------|---------------|--------------------------|
|
|  W                 W              H        S  +S   E  E  E
|-19--------------|---------------|--------------------------|
|-----------------|---------------|---------15-(15)s13-------|
|-----------------|---------------|--------------------16-14-|
|-----------------|---------------|--------------------------|
|-----------------|---------------|--------------------------|
|-----------------|---------------|--------------------------|

   Q.            E            H         Q.           E H
|------------------------------------|----------------------||
|------------------------------------|----------------------||
|------------------------------------|----------------------||
|--5-------------7------------9------|--5------------7-9----||
|--3-------------5------------7------|--3------------5-7----||
|------------------------------------|----------------------||
|
|                             ~~~~~
|  E   S  S   E  S  +S       +H         E      +H..
|---------------14-(14)b15==(14)r----|-17b19==(17)----------||
|------------------------------------|----------------------||
|-16--16p14--------------------------|----------------------||
|-----------h17----------------------|----------------------||
|------------------------------------|----------------------||
|------------------------------------|----------------------||


 Outro
  Gtr II
    ~~~~~~~~~~~~~~~~~~~~~~~~~~~~~~~~~~~~~~~~~~~~~~~~~~~~~~~~~~~~
     E   E    E   E    E   E    E   E      E   E    E   E    E    E  E  E
|-(17)(17)-(17)(17)-(17)(17)-(17)(17)-|-(17)(17)-(17)(17)r(17)\----------|
|--12p=10---12p=10---12p=10---12p=10--|--12p=10---12p=10---12p==10-12p10-|
|--12p=11---12p=11---12p=11---12p=11--|--12p=11---12p=11---12p==11-12p11-|
|-------------------------------------|----------------------------------|
|-------------------------------------|----------------------------------|
|-------------------------------------|----------------------------------|
|
| Gtr III
|   W                                     W
|-------------------------------------|----------------------------------|
|-------------------------------------|----------------------------------|
|-------------------------------------|----------------------------------|
|-------------------------------------|----------------------------------|
|---5---------------------------------|---3------------------------------|
|-------------------------------------|----------------------------------|

    E  E  E  E  E  E  E  E    E  E  E  E   E  E  E  E
|-------------------------|--------------------------|
|-12p10-12p10-12p10-12p10-|-12p10-12p10--12p10-12p10-|
|-12p11-12p11-12p11-12p11-|-12p11-12p11--12p11-12p11-|
|-------------------------|--------------------------|
|-------------------------|--------------------------|
|-------------------------|--------------------------|
|
|  W                         Q.       Q.        Q
|-------------------------|--------------------------|
|-------------------------|--------------------------|
|-------------------------|--------------------------|
|-------------------------|--------------------------|
|--5----------------------|--------------------------|
|-------------------------|--0--------2---------3----|

  Gtr II
    E  E  E  E  E  E  E  E     E   E  E  E  E  E  E  E
|-------------------------|---------------------------|
|-12p10-12p10-12p10-12p10-|--12p=10-12p10-12p10-12p10-|
|-12p11-12p11-12p11-12p11-|--12p=11-12p11-12p11-12p11-|
|-------------------------|---------------------------|
|-------------------------|---------------------------|
|-------------------------|---------------------------|
|
| Gtr I
|              ~~~~~~~~~~~~~~~~~~~~~~~~~~~~~~~~~~~~~~~~
|  H           H             +W
|-------------------------|---------------------------|
|-------------15----------|-(15)----------------------|
|-------------------------|---------------------------|
|-------------------------|---------------------------|
|-------------------------|---------------------------|
|-------------------------|---------------------------|
|
| Gtr III
|  W                          W
|-------------------------|---------------------------|
|-------------------------|---------------------------|
|-------------------------|---------------------------|
|-------------------------|---------------------------|
|--5----------------------|---3-----------------------|
|-------------------------|---------------------------|

     E   E  E  E  E  E  E  E     E   E  E  E   E  E  E  E
|---------------------------|----------------------------|
|--12p=10-12p10-12p10-12p10-|--12p=10-12p10--12p10-12p10-|
|--12p=11-12p11-12p11-12p11-|--12p=11-12p11--12p11-12p11-|
|---------------------------|----------------------------|
|---------------------------|----------------------------|
|---------------------------|----------------------------|
|
|~~~~~~~~~~~~~~~~~~~~~~~~~~~~~~~~~~~~~~~~~~~~~~~~
|  +W                          +H             H
|---------------------------|----------------15----------|
|-(15)----------------------|-(15)-----------------------|
|---------------------------|----------------------------|
|---------------------------|----------------------------|
|---------------------------|----------------------------|
|---------------------------|----------------------------|
|
|   W                           Q.        Q.        Q
|---------------------------|----------------------------|
|---------------------------|----------------------------|
|---------------------------|----------------------------|
|---------------------------|----------------------------|
|---5-----------------------|----------------------------|
|---------------------------|---0---------2---------3----|

     E   E  E  E  E  E  E  E     E   E  E  E  E  E  E  E    E  E  E  E  E  E  E  E    E  E  E  E   E  E  E  E
|---------------------------|---------------------------|-------------------------|--------------------------|
|--12p=10-12p10-12p10-12p10-|--12p=10-12p10-12p10-12p10-|-12p10-12p10-12p10-12p10-|-12p10-12p10--12p10-12p10-|
|--12p=11-12p11-12p11-12p11-|--12p=11-12p11-12p11-12p11-|-12p11-12p11-12p11-12p11-|-12p11-12p11--12p11-12p11-|
|---------------------------|---------------------------|-------------------------|--------------------------|
|---------------------------|---------------------------|-------------------------|--------------------------|
|---------------------------|---------------------------|-------------------------|--------------------------|
|
|   ~~~~~~~~~~~~~~~~~~~~~~~~~~~~~~~
|  +W                          +W                          W                         W
|-(15)----------------------|-(15)----------------------|-------------------------|--------------------------|
|---------------------------|---------------------------|-------------------------|--------------------------|
|---------------------------|---------------------------|-------------------------|--------------------------|
|---------------------------|---------------------------|-------------------------|--------------------------|
|---------------------------|---------------------------|-------------------------|--------------------------|
|---------------------------|---------------------------|-------------------------|--------------------------|
|
|   W                           W                          W                         Q.       Q.        Q
|---------------------------|---------------------------|-------------------------|--------------------------|
|---------------------------|---------------------------|-------------------------|--------------------------|
|---------------------------|---------------------------|-------------------------|--------------------------|
|---------------------------|---------------------------|-------------------------|--------------------------|
|---5-----------------------|---3-----------------------|--5----------------------|--------------------------|
|---------------------------|---------------------------|-------------------------|--0--------2---------3----|

    E  E  E  E  E  E  E  E    E  E  E  E  E  E  E  E    E  E  E  E  E  E  E  E    E  E  E  E   E  E  E  E
|-------------------------|-------------------------|-------------------------|--------------------------*|
|-12p10-12p10-12p10-12p10-|-12p10-12p10-12p10-12p10-|-12p10-12p10-12p10-12p10-|-12p10-12p10--12p10-12p10-*|
|-12p11-12p11-12p11-12p11-|-12p11-12p11-12p11-12p11-|-12p11-12p11-12p11-12p11-|-12p11-12p11--12p11-12p11-*|
|-------------------------|-------------------------|-------------------------|--------------------------*|
|-------------------------|-------------------------|-------------------------|--------------------------*|
|-------------------------|-------------------------|-------------------------|--------------------------*|
|
|  W                         W                         W                         W
|-------------------------|-------------------------|-------------------------|--------------------------*|
|-------------------------|-------------------------|-------------------------|--------------------------*|
|-------------------------|-------------------------|-------------------------|--------------------------*|
|-------------------------|-------------------------|-------------------------|--------------------------*|
|-------------------------|-------------------------|-------------------------|--------------------------*|
|-------------------------|-------------------------|-------------------------|--------------------------*|
|
|  W                         W                         W                         Q.       Q.        Q
|-------------------------|-------------------------|-------------------------|--------------------------*|
|-------------------------|-------------------------|-------------------------|--------------------------*|
|-------------------------|-------------------------|-------------------------|--------------------------*|
|-------------------------|-------------------------|-------------------------|--------------------------*|
|--5----------------------|--3----------------------|--5----------------------|--------------------------*|
|-------------------------|-------------------------|-------------------------|--0--------2---------3----*|
Composição de Peter Baltes / Stefan Kaufmann / Udo Dirkschneider
389 exibições
    • ½ Tom
    • A
    • Bb
    • B
    • C
    • Db
    • D
    • Eb
    • E
    • F
    • F#
    • G
    • Ab
  • Adicionar à lista

    0 comentários

    Ver todos os comentários

    Conseguiu tocar?

    0 Tocaram 0 Ainda não

    Grave um vídeo tocando Midnight Highway e nos envie!

    00:00 / 00:00
    outros vídeos desta música
    repetir qualidade Automático
    Outros vídeos desta música
    00:00 / 00:00
    Automático

    Cifra Club Pro

    Aproveite o Cifra Club com benefícios exclusivos e sem anúncios
    Cifra Club Pro
    Aproveite o Cifra Club com benefícios exclusivos e sem anúncios
    OK