Cifra Club

Aprenda

Pandemic

Accept

Cifra: Principal (violão e guitarra)
Já pensou em usar uma coleção de roupas do Cifra Club? Responda as perguntas abaixo e nos ajude nessa missão! →
tom: G
Intro 2x:
E|--------------------------------------------------------|
B|--------------------------------------------------------|
G|--------------------------------------------------------|
D|--------------------------------------------------------|
A|----4---4---4---4-----------4---4-4---------------------|
E|2-2-2-2-2-2-2-2-2-2-0-2-2-2-2-2-2-2---------------------|

E|--------------------------------------------------------|
B|--------------------------------------------------------|
G|--------------------------------------------------------|
D|----------------------------------4---------------------|
A|----4---4---4---4-----------4---4-2---------------------|
E|2-2-2-2-2-2-2-2-2-2-0-2-2-2-2-2-2-----------------------|

In the cool of the evening, when the fires start burning bright
Hear the twilight callin', as the flames burst into the night
E|--------------------------------------------------------|
B|--------------------------------------------------------|
G|--------------------------------------------------------|
D|------------------------------4-------------------------|
A|----4---4---4---4---------4---2-4-7---------------------|
E|2-2-2-2-2-2-2-2-2-----2-2-2-2---2-5---------------------|

It's creeping in your bloodstream…  like a Metal disease
E|--------------------------------------------------------|
B|--------------------------------------------------------|
G|--------------------------------------------------------|
D|7-------------------------------------------------------|
A|9-------------------------------------------------------|
E|--------------------------------------------------------|

E|--------------------------------------------------------|
B|--------------------------------------------------------|
G|--------------------------------------------------------|
D|------------------------------4-------------------------|
A|----4---4---4---4---------4---2-4-7---------------------|
E|2-2-2-2-2-2-2-2-2-----2-2-2-2---2-5---------------------|

Underneath the streetlights, everything is larger than life
Ya hear the roar, see it gleaming like the edge on a switch-blade knife
E|--------------------------------------------------------|
B|--------------------------------------------------------|
G|--------------------------------------------------------|
D|------------------------------4-------------------------|
A|----4---4---4---4---------4---2-4-7---------------------|
E|2-2-2-2-2-2-2-2-2-----2-2-2-2---2-5---------------------|

A worldwide eruption… underneath your skin
E|--------------------------------------------------------|
B|--------------------------------------------------------|
G|--------------------------------------------------------|
D|7-------------------7-----------------------------------|
A|9-------------------9-----------------------------------|
E|--------------------------------------------------------|

Worldwide corruption… slowly seeping in,
E|--------------------------------------------------------|
B|--------------------------------------------------------|
G|--------------------------------------------------------|
D|5-------------------7--------------6--------------------|
A|7-------------------9--------------4--------------------|
E|--------------------------------------------------------|

Refrão:
It's a pandemic
It's a metal disease… pandemic
E|--------------------------------------------------------|
B|--------------------------------------------------------|
G|--------------------------------------------------------|
D|------------------------------4-------------------------|
A|----4---4---4---4---------4---2-4-7---------------------|
E|2-2-2-2-2-2-2-2-2-----2-2-2-2---2-5---------------------|

Brain cell abduction, creeping in like sin
E|--------------------------------------------------------|
B|--------------------------------------------------------|
G|--------------------------------------------------------|
D|5-------------------7---------------6-------------------|
A|7-------------------9---------------4-------------------|
E|--------------------------------------------------------|

It's a pandemic…
It's a metal disease… pandemic
E|--------------------------------------------------------|
B|--------------------------------------------------------|
G|--------------------------------------------------------|
D|------------------------------4-------------------------|
A|----4---4---4---4---------4---2-4-7---------------------|
E|2-2-2-2-2-2-2-2-2-----2-2-2-2---2-5---------------------|

Brain cell destruction, breeding metal from within…
E|--------------------------------------------------------|
B|--------------------------------------------------------|
G|--------------------------------------------------------|
D|5------------------------------7----------6-------------|
A|7------------------------------9----------4-------------|
E|--------------------------------------------------------|

Whaaaa!!!!
E|--------------------------------------------------------|
B|--------------------------------------------------------|
G|--------------------------------------------------------|
D|--------------------------------------------------------|
A|----4---4---4---4-----------4---4-4---------------------|
E|2-2-2-2-2-2-2-2-2-2-0-2-2-2-2-2-2-2---------------------|

E|--------------------------------------------------------|
B|--------------------------------------------------------|
G|--------------------------------------------------------|
D|----------------------------------4---------------------|
A|----4---4---4---4-----------4---4-2---------------------|
E|2-2-2-2-2-2-2-2-2-2-0-2-2-2-2-2-2-----------------------|

Give into the venom, circulating underneath the skin
Like mercury poison, liquid metal boils within
E|--------------------------------------------------------|
B|--------------------------------------------------------|
G|--------------------------------------------------------|
D|------------------------------4-------------------------|
A|----4---4---4---4---------4---2-4-7---------------------|
E|2-2-2-2-2-2-2-2-2-----2-2-2-2---2-5---------------------|

Spreading like a wildfire, burning up the earth
E|--------------------------------------------------------|
B|--------------------------------------------------------|
G|--------------------------------------------------------|
D|7-------------------------------------------------------|
A|9-------------------------------------------------------|
E|--------------------------------------------------------|

E|--------------------------------------------------------|
B|--------------------------------------------------------|
G|--------------------------------------------------------|
D|------------------------------4-------------------------|
A|----4---4---4---4---------4---2-4-7---------------------|
E|2-2-2-2-2-2-2-2-2-----2-2-2-2---2-5---------------------|

Caught in the crossfire, all around the world
E|--------------------------------------------------------|
B|--------------------------------------------------------|
G|--------------------------------------------------------|
D|7-------------------7-----------------------------------|
A|9-------------------9-----------------------------------|
E|--------------------------------------------------------|

There's no way to stop it now…
E|--------------------------------------------------------|
B|--------------------------------------------------------|
G|--------------------------------------------------------|
D|5-----------------------7----------6--------------------|
A|7-----------------------9----------4--------------------|
E|--------------------------------------------------------|

Refrão:
It's a pandemic
It's a metal disease… pandemic
E|--------------------------------------------------------|
B|--------------------------------------------------------|
G|--------------------------------------------------------|
D|------------------------------4-------------------------|
A|----4---4---4---4---------4---2-4-7---------------------|
E|2-2-2-2-2-2-2-2-2-----2-2-2-2---2-5---------------------|

Burnt in your hard drive, smokin' up the earth, like a Pandemic
E|--------------------------------------------------------|
B|--------------------------------------------------------|
G|--------------------------------------------------------|
D|5-------------------7---------------6-------------------|
A|7-------------------9---------------4-------------------|
E|--------------------------------------------------------|

E|--------------------------------------------------------|
B|--------------------------------------------------------|
G|--------------------------------------------------------|
D|------------------------------4-------------------------|
A|----4---4---4---4---------4---2-4-7---------------------|
E|2-2-2-2-2-2-2-2-2-----2-2-2-2---2-5---------------------|

A pandemic…Whaaaa!!!!A metal disease…
E|--------------------------------------------------------|
B|--------------------------------------------------------|
G|--------------------------------------------------------|
D|5------------------------------7----------6-------------|
A|7------------------------------9----------4-------------|
E|--------------------------------------------------------|

Solo:
E|---------------------------------------------------------------------|
B|---------------------------------------------------------------------|
G|---2-4*-2-------------2-4*-2---------2-4*-2--------------------------|
D|-4--------4-4--4-2--4--------4-4*--4--------4-4*-4-2---7-7b9r7-7-----|
A|---------------------------------------------------------------------|
E|---------------------------------------------------------------------|
                 . .                               . .
E|-------------------------------------------------------------|
B|-----------------------------------------10-7-7b8r7---/14b---|
G|--6-(6)/4b6r4--6-(6)-6-6-4--6-4----6-7-9---------------------|
D|--------------------------------6----------------------------|
A|-------------------------------------------------------------|
E|-------------------------------------------------------------|

E|-------/------------------------------------------------------------|
B|-15b-(t15b)--15-15-14------15-15b16r15--14-(15)h17--17-15-12--17*---|
G|----------------------14-11-----------------------------------------|
D|--------------------------------------------------------------------|
A|--------------------------------------------------------------------|
E|--------------------------------------------------------------------|

E|----/---------------|-----------------------------------------------------------------|
B|---19-----17-19-21b-|-21-21-19--19-21-19-17-19-17-18-19-18-16-17-16-17-19-17-16-17-16-|
G|--------------------|---------18------------------------------------------------------|
D|--------------------|-----------------------------------------------------------------|
A|--------------------|-----------------------------------------------------------------|
E|--------------------|-----------------------------------------------------------------|

E|---------------------------------------------------------------|
B|-19-17--17-15--------------------------------------------------|
G|-------------16-16-18-17-14-16-17-16---------------------------|
D|---------------------------------------------------------------|
A|-------------------------------------------14-12--11-12*b13-11-|
E|--------------------------------------15-17--------------------|
                                       .  .
        Not sure about this chord
E|-----/--------------------------------------------------------------------------|
B|----/-------------------------/17-19-17-19-17-19-17--17-19-21b--19-17-19-19*----|
G|--14--14-11--11-14-11--11--14---------------------------------------------------|
D|--14-------14--(14)--14---------------------------------------------------------|
A|--------------------------------------------------------------------------------|
E|--------------------------------------------------------------------------------|

E|--------------------------------------------------------|
B|-14-15b17--15-14-15-17-15-14-12-10-12p11p10--9-9*b10-9~-|
G|--------------------------------------------------------|
D|--------------------------------------------------------|
A|--------------------------------------------------------|
E|--------------------------------------------------------|

Refrão:
Pandemic… wow, it's a metal disease, Pandemic…
E|--------------------------------------------------------|
B|--------------------------------------------------------|
G|--------------------------------------------------------|
D|------------------------------4-------------------------|
A|----4---4---4---4---------4---2-4-7---------------------|
E|2-2-2-2-2-2-2-2-2-----2-2-2-2---2-5---------------------|

caught in the barbed wire, it's underneath the skin
E|--------------------------------------------------------|
B|--------------------------------------------------------|
G|--------------------------------------------------------|
D|5------------------------7-------------------6----------|
A|7------------------------9-------------------4----------|
E|--------------------------------------------------------|

It's a pandemic…
It's a metal disease… pandemic
E|--------------------------------------------------------|
B|--------------------------------------------------------|
G|--------------------------------------------------------|
D|------------------------------4-------------------------|
A|----4---4---4---4---------4---2-4-7---------------------|
E|2-2-2-2-2-2-2-2-2-----2-2-2-2---2-5---------------------|

It's creeping in your bloodstream Wow
E|--------------------------------------------------------|
B|--------------------------------------------------------|
G|--------------------------------------------------------|
D|5------------------------------7----------6-------------|
A|7------------------------------9----------4-------------|
E|--------------------------------------------------------|

E|---------------------------------------------------------------------|
B|---------------------------------------------------------------------|
G|---2-4*-2-------------2-4*-2---------2-4*-2--------------------------|
D|-4--------4-4--4-2--4--------4-4*--4--------4-4*-4-2---7-7b9r7-7-----|
A|---------------------------------------------------------------------|
E|---------------------------------------------------------------------|
Colaboração e revisão:
  • Lizandra
901 exibições
    • ½ Tom
    • A
    • Bb
    • B
    • C
    • Db
    • D
    • Eb
    • E
    • F
    • F#
    • G
    • Ab
  • Adicionar à lista

    0 comentários

    Ver todos os comentários

    Conseguiu tocar?

    0 Tocaram 0 Ainda não

    Grave um vídeo tocando Pandemic e nos envie!

    00:00 / 00:00
    outros vídeos desta música
    repetir qualidade Automático
    Outros vídeos desta música
    00:00 / 00:00
    Automático

    Cifra Club Pro

    Aproveite o Cifra Club com benefícios exclusivos e sem anúncios
    Cifra Club Pro
    Aproveite o Cifra Club com benefícios exclusivos e sem anúncios
    OK