Cifra Club

Jezebel

Acid Bath

Cifra: Principal (violão e guitarra)
Selo Cifra Club: esta cifra foi revisada para atender aos critérios oficiais da nossa Equipe de Qualidade.
tom: Bm
E|----------------------------|----------------------------|
B|----------------------------|----------------------------|
G|----------------------------|----------------------------|
D|----------------------------|----------------------------|
A|----------------------------|----------------------------|
E|-3-3-3--2-2-2--6-6-6--2-2-2-|-3-3-3--2-2-2--0-0-0--2-2-2-|
 PM * * *  * * *  * * *  * * *   * * *  * * *  * * *  * * *                    

E|----------------------------|--------------------|
B|----------------------------|--------------------|
G|----------------------------|--------------------|
D|----------------------------|--------------------|
A|----------------------------|---------------2--2-|
E|-3-3-3--2-2-2--6-6-6--2-2-2-|-3-3-3--2-2-2--0--0-| "If I put this cigarette..."
 PM * * *  * * *  * * *  * * *   * * *  * * *  

(0:08) (Both guitars)
E|----------------------------|----------------------------|
B|----------------------------|----------------------------|
G|----------------------------|----------------------------|
D|----------------------------|----------------------------|
A|----------------------------|----------------------------|
E|-3-3-3--2-2-2--6-6-6--2-2-2-|-3-3-3--2-2-2--0-0-0--2-2-2-|
 PM * * *  * * *  * * *  * * *   * * *  * * *  * * *  * * *                    

E|----------------------------|-------------------------|
B|----------------------------|-------------------------|
G|----------------------------|-------------------------|
D|----------------------------|-------------------------|
A|----------------------------|---------------2-2-2-2-2-|
E|-3-3-3--2-2-2--6-6-6--2-2-2-|-3-3-3--2-2-2--0-0-0-0-0-| "Would you love me?"
 PM * * *  * * *  * * *  * * *   * * *  * * *  * * * * *                                                
                                                     
[Verse]
(0:15) (Both guitars)
E|-------------------|--------------------|
B|-------------------|--------------------|
G|-------------------|--------------------|
D|-------------------|--------------------|
A|-/8--5-5--4-4--5-5-|-2-2--5-5--4-4--5-5-|
E|-/6--3-3--2-2--3-3-|-0-0--3-3--2-2--3-3-| (x4)
 PM     * *  * *  * *   * *  * *  * *  * *

(0:26) (Guitar 1, right side)
"Her throat..."
E|-------------------|--------------------|
B|-------------------|--------------------|
G|-------------------|--------------------|
D|-------------------|--------------------|
A|--8--5-5--4-4--5-5-|-2-2--5-5--4-4--5-5-|
E|--6--3-3--2-2--3-3-|-0-0--3-3--2-2--3-3-| (x4)

(0:26) (Guitar 2, left side)
E|----------------------------------------------------------------------|
B|----------------------------------------------------------------------|
G|----------------------------------------------------------------------|
D|--8~------------------------------------------------------------------|
A|----------------------------------------------------------------------|
E|----------------------------------------------------------------------|
(give ^this note a ton of vibrato, and let it turn into feedback)

[Chorus]
(0:37) (Both guitars)
"Jezebel..."
E|------------------|--------------------|
B|------------------|--------------------|
G|------------------|--------------------|
D|------------------|--------------------|
A|-8--5-5--4-4--5-5-|-2-2--5-5--4-4--5-5-|
E|-6--3-3--2-2--3-3-|-0-0--3-3--2-2--3-3-| (x2)
 PM    * *  * *  * *   * *  * *  * *  * *

(0:43) (Both guitars)
E|---------------------|------------------------|---------------------|---------------------|
B|---------------------|------------------------|---------------------|---------------------|
G|---------------------|------------------------|---------------------|---------------------|
D|---------------------|------------------------|---------------------|---------------------|
A|--------8-8-8--9-9-9-|--------9-9-9--10-10-10-|--------8-8-8--9-9-9-|--------7-7-7--8-8-8-|
E|-7-7-7---------------|-8-8-8------------------|-7-7-7---------------|-6-6-6---------------|
 PM * * *  * * *  * * *   * * *  * * *   *  *  *   * * *  * * *  * * *   * * *  * * *  * * * 

(0:47) (Guitar 1, right side)
E|-------------------|--------------------|-----|
B|-------------------|--------------------|-----|
G|-------------------|--------------------|-----|
D|-------------------|--------------------|-----|
A|--8----------------|--------------------|--8--|
E|--6----------------|--------------------|--6--|

(0:47) (Guitar 2, left side)
E|-------------------|--------------------|-----|
B|-------------------|--------------------|-----|
G|-------------------|--------------------|-----|
D|-------------------|--------------------|-----|
A|--8--5-5--4-4--5-5-|-2-2--5-5--4-4--5-5-|--8--|
E|--6--3-3--2-2--3-3-|-0-0--3-3--2-2--3-3-|--6--|

(0:53) (Guitar 1, right side)
"Red rope burns..."
E|-------------------|--------------------|
B|-------------------|--------------------|
G|-------------------|--------------------|
D|-------------------|--------------------|
A|--8--5-5--4-4--5-5-|-2-2--5-5--4-4--5-5-|
E|--6--3-3--2-2--3-3-|-0-0--3-3--2-2--3-3-| (x4)

(0:53) (Guitar 2, left side)
E|-------------------------------------------|
B|-------------------------------------------|
G|-------------------------------------------|
D|--8~---------------------------------------|
A|-------------------------------------------|
E|-------------------------------------------|
   (^same story as earlier, make it sing)

(1:04) (Both guitars)
"Do you love..."
E|------------------|--------------------|
B|------------------|--------------------|
G|------------------|--------------------|
D|------------------|--------------------|
A|-8--5-5--4-4--5-5-|-2-2--5-5--4-4--5-5-|
E|-6--3-3--2-2--3-3-|-0-0--3-3--2-2--3-3-| (x2)
 PM    * *  * *  * *   * *  * *  * *  * *

(1:09) (Both guitars)
E|-----------------|----------------|
B|-----------------|----------------|
G|-----------------|----------------|
D|-----------------|----------------|
A|-----------------|----------------|
E|-/6~--3~--2~--3~-|--0--3~--2~--3~-| (x2)
On this riff, really emphasise the slide up to the 6th fret, and vibrato the heck outta those bad boys.

[Chorus]
(01:15) (Both guitars)
E|---------------------|------------------------|---------------------|---------------------|
B|---------------------|------------------------|---------------------|---------------------|
G|---------------------|------------------------|---------------------|---------------------|
D|---------------------|------------------------|---------------------|---------------------|
A|--------8-8-8--9-9-9-|--------9-9-9--10-10-10-|--------8-8-8--9-9-9-|--------7-7-7--8-8-8-|
E|-7-7-7---------------|-8-8-8------------------|-7-7-7---------------|-6-6-6---------------| (x2)
 PM * * *  * * *  * * *   * * *  * * *   *  *  *   * * *  * * *  * * *   * * *  * * *  * * *

(1:24) (Both guitars)
E|------------|-------------|
B|------------|-------------|
G|------------|-------------|
D|------------|--10~--------|
A|-----8~-----|------9~-----|
E|--7~----7~--|---------8~--|

(01:26) (Both guitars)
E|---------------------|------------------------|---------------------|---------------------|
B|---------------------|------------------------|---------------------|---------------------|
G|---------------------|------------------------|---------------------|---------------------|
D|---------------------|------------------------|---------------------|---------------------|
A|--------8-8-8--9-9-9-|--------9-9-9--10-10-10-|--------8-8-8--9-9-9-|--------7-7-7--8-8-8-|
E|-7-7-7---------------|-8-8-8------------------|-7-7-7---------------|-6-6-6---------------| (x2)
 PM * * *  * * *  * * *   * * *  * * *   *  *  *   * * *  * * *  * * *   * * *  * * *  * * *

(1:35) (Both guitars)
E|------------|-------------|
B|------------|-------------|
G|------------|-------------|
D|------------|--10~--------|
A|-----8~-----|------9~-----|
E|--7~----7~--|---------8~--|

(1:38) (Bass interlude)

(2:11) (Guitar 1, right side)
"Hearts will stop..."
E|-------------------------------------------|
B|-------------------------------------------|
G|-------------------------------------------|
D|-------------------------------------------|
A|-------------------------------------------|
E|---------------------------0-0-0-0-0-0-0-0-| (x4)
                          PM  * * * * * * * *
(2:11) (Guitar 2, left side)
E|-------------------------------------------|
B|-------------------------------------------|
G|-------------------------------------------|
D|-------------------------------------------|
A|-(7)(7)(7)(7)(7)(7)(7)(7)------------------|
E|----thos| e are natural harmonics------------| (x4)

(2:18) (Guitar 1, right side)
"She screams bloody murder..."                      
E|------------------------------------------|-----------------------------------|
B|------------------------------------------|-----------------------------------|
G|------------------------------------------|-----------------------------------|
D|------------------------------------------|-----------------------------------|
A|------------------------------------------|-----------------------------------|
E|--------------------------0-0-0-0-0-0-0-0-|--0-0-0-0-0-0-0-0--0-0-0-0-0-0-0-0-|
                        PM   * * * * * * * *    * * * * * * * *  * * * * * * * *

(2:18) (Guitar 2, left side)
"She screams bloody murder..."
E|------------------------------------------|----------------------------------|
B|------------------------------------------|----------------------------------|
G|------------------------------------------|----------------------------------|
D|------------------------------------------|----------------------------------|
A|-(7)(7)(7)(7)(7)(7)(7)(7)-7-7-7-7-7-7-7-7-|-7-7-7-7-7-7-7-7--7-7-7-7-7-7-7-7-|
E|------------------------------------------|----------------------------------|
                        PM   * * * * * * * *   * * * * * * * *  * * * * * * * *

(2:20) (Guitar 1, right side)
"...as they chop off her fingers..."                      
E|------------------------------------|------------------------------------|
B|------------------------------------|------------------------------------|
G|------------------------------------|------------------------------------|
D|------------------------------------|------------------------------------|
A|------------------------------------|------------------------------------|
E|--0-0-0-0-0-0-0-0--0-0-0-0-0-0-0-0--|--0-0-0-0-0-0-0-0--0-0-0-0-0-0-0-0--|
 PM  * * * * * * * *  * * * * * * * *     (gradually stop palm-muting)

(2:20) (Guitar 2, left side)
"...as they chop off her fingers..."
E|------------------------------------|------------------------------------|
B|------------------------------------|------------------------------------|
G|------------------------------------|------------------------------------|
D|------------------------------------|------------------------------------|
A|--7-7-7-7-7-7-7-7--7-7-7-7-7-7-7-7--|--7-7-7-7-7-7-7-7--7-7-7-7-7-7-7-7--|
E|------------------------------------|------------------------------------|
PM   * * * * * * * *  * * * * * * * *     (gradually stop palm-muting)

(2:26) (Guitar 1, right side)
"But its ok!"                      
E|-------------------|-------------------|-------------------|-------------------|
B|-------------------|-------------------|-------------------|-------------------|
G|-------------------|-------------------|-------------------|-------------------|
D|--7h8p7---7h8p7----|--7h8p7---7--------|-------------------|-------------------|
A|--------8-------8--|--------8---8-7-8--|--7h8p7---7h8p7----|--7h8p7---7--------|
E|-------------------|-------------------|--------8-------8--|--------8---8-7-8--|
      PM   *       *           *   *               
                
(2:26) (Guitar 2, left side)
"But it's ok!"
E|-------------------|-------------------|-------------------|-------------------|
B|-------------------|-------------------|-------------------|-------------------|
G|-------------------|-------------------|-------------------|-------------------|
D|-------------------|-------------------|-------------------|-------------------|
A|--7h8p7---7h8p7----|--7h8p7---7--------|--7h8p7---7h8p7----|--7h8p7---7--------|
E|--------8-------8--|--------8---8-7-8--|--------8-------8--|--------8---8-7-8--|
      PM   *       *           *   *

(2:33) (Guitar 1, right side)
"Yeah, everything's ok!"                      
E|-------------------|-------------------|-------------------|-------------------|
B|-------------------|-------------------|-------------------|-------------------|
G|-------------------|-------------------|-------------------|-------------------|
D|--7h8p7---7h8p7----|--7h8p7---7--------|-------------------|-------------------|
A|--------8-------8--|--------8---8-7-8--|--7-8-7---7-8-7----|--7-8-7---7--------|
E|-------------------|-------------------|--------8-------8--|--------8---8-7-8--|
      PM   *       *           *   *     PM  * * * * * * * *     * * * * * * * *          
                
(2:33) (Guitar 2, left side)
"But it's ok!"
E|-------------------|-------------------|-------------------|-------------------|
B|-------------------|-------------------|-------------------|-------------------|
G|-------------------|-------------------|-------------------|-------------------|
D|-------------------|-------------------|-------------------|-------------------|
A|--7h8p7---7h8p7----|--7h8p7---7--------|--7-8-7---7-8-7----|--7-8-7---7--------|
E|--------8-------8--|--------8---8-7-8--|--------8-------8--|--------8---8-7-8--|
      PM   *       *           *   *     PM  * * * * * * * *     * * * * * * * * 

(2:40) (Both guitars)
"She was talkin'..."                      
E|-----------------------------------|-----------------------------------|
B|-----------------------------------|-----------------------------------|
G|-----------------------------------|-----------------------------------|
D|-----------------------------------|-----------------------------------|
A|--7-7-8-8-7-7-----7-7-8-8-7-7------|--7-7-8-8-7-7-----7-7--------------|
E|--------------8-8-------------8-8--|--------------8-8-----8-8-7-7-8-8--| (x4)
 PM  * * * * * * * * * * * * * * * *     * * * * * * * * * * * * * * * * 

(2:55) (Both guitars, as far as I can tell)
"Hearts will stop..."                      
E|---------------------------------|
B|---------------------------------|
G|-------------------------(7)(7)--|
D|------------------(8)(8)---------|
A|---------------------------------|
E|--0-0-0-0-0-0-0-0----------------| (x4)
 PM  * * * * * * * * (^those natural harmonics again)

(3:02) (Both guitars)
"She screams bloody murder..."                      
E|------------------------------------|------------------------------------|
B|------------------------------------|------------------------------------|
G|------------------------------------|------------------------------------|
D|------------------------------------|------------------------------------|
A|------------------------------------|------------------------------------|
E|--0-0-0-0-0-0-0-0--0-0-0-0-0-0-0-0--|--0-0-0-0-0-0-0-0--0-0-0-0-0-0-0-0--|
 PM  * * * * * * * *  * * * * * * * *     * * * * * * * *  * * * * * * * *   

(3:05) (Both guitars)
"...so this is how it feels..."                      
E|------------------------------------|------------------------------------|
B|------------------------------------|------------------------------------|
G|------------------------------------|------------------------------------|
D|------------------------------------|------------------------------------|
A|------------------------------------|------------------------------------|
E|--0-0-0-0-0-0-0-0--0-0-0-0-0-0-0-0--|--0-0-0-0-0-0-0-0--0-0-0-0-0-0-0-0--|
 PM  * * * * * * * *   (gradually stop palm-muting)

(3:09) (Guitar 1, right side)
"But its ok!"                      
E|-------------------|-------------------|-------------------|-------------------|
B|-------------------|-------------------|-------------------|-------------------|
G|-------------------|-------------------|-------------------|-------------------|
D|--7h8p7---7h8p7----|--7h8p7---7--------|-------------------|-------------------|
A|--------8-------8--|--------8---8-7-8--|--7h8p7---7h8p7----|--7h8p7---7--------|
E|-------------------|-------------------|--------8-------8--|--------8---8-7-8--| (x2)
      PM   *       *           *   *                 
                
(3:09) (Guitar 2, left side)
"But it's ok!"
E|-------------------|-------------------|-------------------|-------------------|
B|-------------------|-------------------|-------------------|-------------------|
G|-------------------|-------------------|-------------------|-------------------|
D|-------------------|-------------------|-------------------|-------------------|
A|--7h8p7---7h8p7----|--7h8p7---7--------|--7h8p7---7h8p7----|--7h8p7---7--------|
E|--------8-------8--|--------8---8-7-8--|--------8-------8--|--------8---8-7-8--|(x2)
      PM   *       *           *   *  

(3:24) (Both guitars)
"It's ok..."                      
E|---------------------------------|
B|---------------------------------|
G|-------------------------(7)(7)--|
D|------------------(8)(8)---------|
A|---------------------------------|
E|--0-0-0-0-0-0-0-0----------------| (x3)
 PM  * * * * * * * * (^those natural harmonics again)

(3:29) (Both guitars)
"It's ok..."                      
E|-------------------------------|-----|
B|-------------------------------|-----|
G|-------------------------------|-----|
D|-------------------------------|-----|
A|-------------------2--2--2--2--|--2--|
E|--0-0-0-0-0-0-0-0--0--0--0--0--|--0--|
 PM  * * * * * * * *  *  *  *  *     *

(3:42) (Both guitars)
"Jezebel!"
E|----------------|-------------------|-------------------|
B|----------------|-------------------|-------------------|
G|----------------|-------------------|-------------------|
D|----------------|-------------------|-------------------|
A|--5-4------5-4--|--5-6-5-4-5-4------|------5-4-5-6-5-4--|
E|--3-2------3-2--|--3-4-3-2-3-2------|------3-2-3-4-3-2--|
 PM  * *      * *     * * * * * *             * * * * * *                    
 
(3:48) (Both guitars)
"Go!"
E|-------------------|-------------------|--------------------|
B|-------------------|-------------------|--------------------|
G|-------------------|-------------------|--------------------|
D|-------------------|-------------------|--------------------|
A|--7-6-7-8-7-6-7-6--|--7-8-7-6-7-6-7-8--|--7-6--6-----5------|
E|--5-4-5-6-5-4-5-4--|--5-6-5-4-5-4-5-6--|--5-4----5-4---4-3--|

(3:53) (Both guitars)
"My light!"
E|----------------|-------------------|-------------------|
B|----------------|-------------------|-------------------|
G|----------------|-------------------|-------------------|
D|----------------|-------------------|-------------------|
A|--5-4------5-4--|--5-6-5-4-5-4------|------5-4-5-6-5-4--|
E|--3-2------3-2--|--3-4-3-2-3-2------|------3-2-3-4-3-2--|
 PM  * *      * *     * * * * * *             * * * * * * 

(3:58) (Both guitars)
"Go!"
E|-------------------|-------------------|--------------------|
B|-------------------|-------------------|--------------------|
G|-------------------|-------------------|--------------------|
D|-------------------|-------------------|--------------------|
A|--7-6-7-8-7-6-7-6--|--7-8-7-6-7-6-7-8--|--7-6--6-----5------|
E|--5-4-5-6-5-4-5-4--|--5-6-5-4-5-4-5-6--|--5-4----5-4---4-3--| 

(4:04) (Guitar 1, right side)
E|-------------------|-------------------|-------------------|
B|-------------------|-------------------|-------------------|
G|-------------------|-------------------|-------------------|
D|-------------------|-------------------|-------------------|
A|--5-4---------5-4--|--5-6-5-4-5-4-5-6--|--5-4-5-4-5-6-5-4--|
E|--3-2---------3-2--|--3-4-3-2-3-2-3-4--|--3-2-3-2-3-4-3-2--|
 PM  * *         * *     * * * * * * * *     * * * * * * * * 

(4:04) (Guitar 2, left side)
E|-------------------|-------------------|-------------------|
B|-------------------|-------------------|-------------------|
G|-------------------|-------------------|-------------------|
D|-------------------|-------------------|-------------------|
A|--5-4-5-6-5-4-5-4--|--5-6-5-4-5-4------|------5-4-5-6-5-4--|
E|--3-2-3-4-3-2-3-2--|--3-4-3-2-3-2------|------3-2-3-4-3-2--|
 PM  * * * * * * * *     * * * * * *             * * * * * *

(4:10) (Both guitars)
"Go!"
E|-------------------|-------------------|--------------------|
B|-------------------|-------------------|--------------------|
G|-------------------|-------------------|--------------------|
D|-------------------|-------------------|--------------------|
A|--7-6-7-8-7-6-7-6--|--7-8-7-6-7-6-7-8--|--7-6--6-----5------|
E|--5-4-5-6-5-4-5-4--|--5-6-5-4-5-4-5-6--|--5-4----5-4---4-3--| 

(4:15) (Both guitars)
E|-------------------|-------------------|-------------------|
B|-------------------|-------------------|-------------------|
G|-------------------|-------------------|-------------------|
D|-------------------|-------------------|-------------------|
A|--5-4-5-6-5-4-5-4--|--5-6-5-4-5-4-5-6--|--5-4-5-4-5-6-5-4--|
E|--3-2-3-4-3-2-3-2--|--3-4-3-2-3-2-3-4--|--3-2-3-2-3-4-3-2--|
 PM      * * * *         * * * *     * *     * *     * * * *

(4:20) (Both guitars)
E|-------------------|-------------------|--------------------|
B|-------------------|-------------------|--------------------|
G|-------------------|-------------------|--------------------|
D|-------------------|-------------------|--------------------|
A|--7-6-7-8-7-6-7-6--|--7-8-7-6-7-6-7-8--|--7-6--6-----5------|
E|--5-4-5-6-5-4-5-4--|--5-6-5-4-5-4-5-6--|--5-4----5-4---4-3--|

(4:26) (Both guitars)
"Jeze-!"
E|-------------------|-------------------|-------------------|
B|-------------------|-------------------|-------------------|
G|-------------------|-------------------|-------------------|
D|-------------------|-------------------|-------------------|
A|--5-4-5-6-5-4-5-4--|--5-6-5-4-5-4-5-6--|--5-4-5-4-5-6-5-4--|
E|--3-2-3-4-3-2-3-2--|--3-4-3-2-3-2-3-4--|--3-2-3-2-3-4-3-2--|
 PM      * * * *         * * * *     * *     * *     * * * *

(4:32) (Both guitars)
E|-------------------|-------------------|--------------------|
B|-------------------|-------------------|--------------------|
G|-------------------|-------------------|--------------------|
D|-------------------|-------------------|--------------------|
A|--7-6-7-8-7-6-7-6--|--7-8-7-6-7-6-7-8--|--7-6--6-----5------|
E|--5-4-5-6-5-4-5-4--|--5-6-5-4-5-4-5-6--|--5-4----5-4---4-3--|

(4:37) (Guitar 1, right side)              
E|-------------------|-------------------|----------x-x-x-x--|
B|-------------------|-------------------|----------x-x-x-x--|
G|-------------------|-------------------|----------x-x-x-x--|
D|-------------------|-------------------|-------------------|
A|--5-4---------5-4--|----------5-4-5-6--|--5-4-5-4----------|
E|--3-2---------3-2--|----------3-2-3-4--|--3-2-3-2----------|
 PM  * *         * *             * * * *     * * * *  

Note: To recreate the sound effect, just get your pick and jab it into the frets
while going down the fretboard. Idk how else to explain it. :/ 

(4:37) (Guitar 2, left side)
E|-------------------|-------------------|-------------------|
B|-------------------|-------------------|-------------------|
G|-------------------|-------------------|-------------------|
D|-------------------|-------------------|-------------------|
A|--5-4-5-6-5-4-5-4--|----------5-4------|------5-4----------|
E|--3-2-3-4-3-2-3-2--|----------3-2------|------3-2----------|
 PM  * * * * * * * *             * *             * * 

(4:42) (Both guitars)
E|-------------------|-------------------|--------------------|--------|
B|-------------------|-------------------|--------------------|--------|
G|-------------------|-------------------|--------------------|--------|
D|-------------------|-------------------|--------------------|--------|
A|--7-6-7-8-7-6-7-6--|--7-8-7-6-7-6-7-8--|--7-6--6-----5------|--5--4--|
E|--5-4-5-6-5-4-5-4--|--5-6-5-4-5-4-5-6--|--5-4----5-4---4-3--|--3--2--|
                                                              PM  *  

There ya have it!



************************************

| PM   Palm mute
| /    Slide up
| ~    Vibrato
| (n)  Ghost note
| h    Hammer-on
| p    Pull-off
| x    Dead note
|      
| #    
| (    
| ) (Guitar 
| , left side) 
| :    
| PM  * * * * * * * * 
| those are natural harmonics 
Outros vídeos desta música
    40 exibições
      • ½ Tom
      • Am
      • Bbm
      • Bm
      • Cm
      • C#m
      • Dm
      • Ebm
      • Em
      • Fm
      • F#m
      • Gm
      • G#m
    • Adicionar à lista

    Afinação da cifra

    Afinador online

      0 comentários

      Ver todos os comentários

      Conseguiu tocar?

      0Tocaram0Ainda não

      Grave um vídeo tocando Jezebel e nos envie!

      Toque também

      1. Imagem do artista Electric WizardBarbarian Electric Wizard
      2. Imagem do artista Soilent GreenBuild Fear Soilent Green
      3. Imagem do artista EyehategodTake As Needed For Pain Eyehategod
      4. Imagem do artista CrowbarTo Build A Mountian Crowbar

      Entre para o Cifra Club PRO

      Tenha acesso a benefícios exclusivos no App e no Site

      • Chega de anúncios

      • Badges exclusivas

      • Mais recursos no app do Afinador

      • Atendimento Prioritário

      • Aumente seu limite de lista

      • Ajude a produzir mais conteúdo

      Cifra Club Pro

      Aproveite o Cifra Club com benefícios exclusivos e sem anúncios
      Cifra Club Pro
      Aproveite o Cifra Club com benefícios exclusivos e sem anúncios
      Ops (: Contenido disponible sólo en portugués.
      OK