Cifra Club

Fim De Tarde Com Você

Acústicos & Valvulados

Cifra: Principal
exibições 205.419
Tom: G
Intro:


E|--------------------------|
B|---7-5-3------------------|
G|---------4-2--------------|
D|--------------5-----------|
A|--------------------------|
E|--------------------------|


G                           D/F#               Am       D
        Nunca mais abro a janela do meu quarto num dia cinza
G                              D/F#                  Am     D
        Sei que o sol fica dormindo atrás das nuvens não ilumina

Am                              D7
        Nem penso muito no que pode acontecer
G D/F#              Em
        Enquanto arrumo
                  Cm                    G
        Todas as coisas que eu sinto
                  Cm                    G
        O meu passado e o meu destino
                  Am                 D           G      D/F#    Am      D
        E espero que o fim da tarde venha com você  aah... aah... aah...

G                   D/F#             Am       D
Resisto mas escuto bem o som dos carros na avenida
G                  D/F#               Am           D
Quero mais é descansar com meu cigarro no andar de cima

 Am                             D7
        Nem penso muito no que pode acontecer
 G D/F#             Em
        Enquanto arrumo
                  Cm                    G
        Todas as coisas que eu sinto
                  Cm                    G
        O meu passado e o meu destino
                  Am                 D           G
        E espero que o fim da tarde venha com você

solo: (G D/F# Am D)2x Am D G D/F# Em Cm G Cm G Am D


E|------------------------|--------10-10--10---10-10--------------10--|
B|------------------------|-10-12------12---12-------12-8-10-12-------|
G|-5-5/7-7/9-7-4\2-4\2----|-------------------------------------------|
D|---------------------0--|-------------------------------------------|
A|------------------------|-------------------------------------------|
E|------------------------|-------------------------------------------|


E|-------10-10-10--10-12-10--------------10--|
B|-10-12------12---12-----------12-8-10-12---|
G|-------------------------------------------|
D|-------------------------------------------|
A|-------------------------------------------|
E|-------------------------------------------|


E|-12-10------------10------------10----10---------------|
B|-------12-8-10/12----12-8-10/12----12----12-8-10-12-8--|
G|-------------------------------------------------------|
D|-------------------------------------------------------|
A|-------------------------------------------------------|
E|-------------------------------------------------------|


E|-----------------------------------------|-----------------------|
B|-----------------------------------------|-----------------------|
G|-----------------------------------------|-7-7/9-(7-4-0-2/7)-2x--|
D|-0-3-5-6-5-3-5-7-|-0-3-5-6-5-3-5/10-7-3--|-----------------------|
A|-----------------------------------------|-----------------------|
E|-----------------------------------------|-----------------------|



G                     D/F#                Am         D
Sem pressa risco no papel uns poucos traços pra despedida
G                   D/F#                Am      D
do que me leva a cantar assim tão baixo e me alucina...

 Am                             D7
        Nem penso muito no que pode acontecer
 G D/F#             Em
        Enquanto arrumo
                  Cm                    G
        Todas as coisas que eu sinto
                  Cm                    G
        O meu passado e o meu destino
                  Am                 D           G
        E espero que o fim da tarde venha com você

                  Am                 D           G      G  D/F#  Em
        E espero que o fim da tarde venha com você
                  Am                 D           G      G  D/F#  Em
        E espero que o fim da tarde venha com você
Acordes para:

    0 comentários

      mostrar mais comentários

      Conseguiu tocar?

      22tocaram0ainda não

      Grave um vídeo tocando Fim De Tarde Com Você e mande pra gente!

      00:00 / 00:00
      outros vídeos desta música
      repetirqualidadeautomática
      Outro vídeos desta música
        00:00 / 00:00
        automática
        OK