Enviar cifraEntrar

Someone Like You

Adele

Cifra: Principal
exibições 3.324.223
Tom: A
Intro:  A  C#m/G#  F#m D

Dedilhado:
   


E|-----0------------0--------------2------------0------------|
B|-------2-------------2--------------2-------------2--------|
G|---2-----------2--------------2-------------2--------------|
D|-----------------------------------------------------------|
A|-0----------0--------------0-------------0-----------------|
E|-----------------------------------------------------------|


      C#m/G#
E|-----------------------------------------------------------|
B|-----5-------------5--------------5------------5-----------|
G|-------6-------------6--------------6------------6---------|
D|---6------------6--------------6-------------6-------------|
A|-----------------------------------------------------------|
E|-4-----------4--------------4--------------4---------------|


      F#m
E|-----2------------2--------------2-------------2-----------|
B|-------2-------------2--------------2----------------------|
G|---2-----------2--------------2--------------2---2---------|
D|-----------------------------------------------------------|
A|-----------------------------------------------------------|
E|-2----------2--------------2--------------2----------------|


      D
E|-----2------------2--------------2-----------2-------------|
B|-------3-------------3--------------3----------3-----------|
G|---2-----------2--------------2------------2---------------|
D|-0---------0--------------0-------------0------------------|
A|-----------------------------------------------------------|
E|-----------------------------------------------------------|


      A              C#m/G#
I've heard that you're settled down
       F#m
That you found a girl
          D
And you're married now

A                      C#m/G#
I've heard that your dreams came true
           F#m
Guess she gave you things
          D
I didn't give to you

A                       C#m/G#
Old friend why are you so shy?
            F#m
Ain't like you to hold back
    D
Or hide from life

Pré-refrão:
   E                           F#m7(11)      D
I hate to turn up out of the blue uninvited but

I couldn't stay away I couldn't fight it
     E
I'd hoped you'd see my face
      F#m7(11)                           D    D9(4+) D
And that you'd be reminded that for me it isn't over

Pré Refrão:


      E                          F#m7(11)
E|-----0------------0-----|---------0-------------0-----------|
B|-------0-------------0--|------------0-------------0--------|
G|---1-----------1--------|------2-------------2--------------|
D|------------------------|-----------------------------------|
A|------------------------|-----------------------------------|
E|-0----------0-----------|---2-------------2-----------------|


       D
E|------------------------------------------------|
B|------3-----------3-----------3-----------3-----|
G|----2---2-------2---2-------2---2-------2---2---|
D|--0-----------0-----------0-----------0---------|
A|------------------------------------------------|
E|------------------------------------------------|


      E                          F#m7(11)
E|-----0------------0-----|---------0-------------0-----------|
B|-------0-------------0--|------------0-------------0--------|
G|---1-----------1--------|------2-------------2--------------|
D|------------------------|-----------------------------------|
A|------------------------|-----------------------------------|
E|-0----------0-----------|---2-------------2-----------------|


      D
E|-----2------------2--------------0-----------0-------------|
B|-------3-------------3--------------3----------0-----------|
G|---2-----------2--------------1------------1---------------|
D|-0---------0--------------0-------------0------------------|
A|-----------------------------------------------------------|
E|-----------------------------------------------------------|


      D
E|-----2------------2--------------2-----------2-------------|
B|-------3-------------3--------------3----------3-----------|
G|---2-----------2--------------2------------2---------------|
D|-0---------0--------------0-------------0------------------|
A|-----------------------------------------------------------|
E|-----------------------------------------------------------|


      D4+
E|-----4------------4-------|
B|-------3-------------3----|
G|---2-----------2----------|
D|-0---------0--------------|
A|--------------------------|
E|--------------------------|


Refrão:
A                  E            F#m  D
  Never mind I'll find someone like you
        A               E        F#m D
I wish nothing but the best for you two
       A           E          F#m        D
Don't forget me I beg I'll remember you said
               A                 E
"Sometimes it lasts in love but sometimes
         F#m      D
it hurts instead"
               A                 E
"Sometimes it lasts in love but sometimes
         F#m      D
it hurts instead"

Refrão:

      A
E|-----0------------0------|
B|-------2-------------2---|
G|---2-----------2---------|
D|-------------------------|
A|-0----------0------------|
E|-------------------------|


       E                          F#m
E|-----0------------0-----|---------2-------------2-------|
B|-------0-------------0--|------------2-------------2----|
G|---1-----------1--------|------2-------------2----------|
D|------------------------|-------------------------------|
A|------------------------|-------------------------------|
E|-0----------0-----------|---2-------------2-------------|


      D
E|-----2------------2-------|
B|-------3-------------3----|
G|---2-----------2----------|
D|-0---------0--------------|
A|--------------------------|
E|--------------------------|


A                  C#m/G#
 You'd know how time flies
      F#m
Only yesterday
         D
was the time of our lives

         A
We were born and raised
    C#m/G#
In a summer haze
       F#m                     D
Bound by the surprise of our glory days

   E                            F#m7(11)
I hate to turn up out of the blue uninvited but
D
I couldn't stay away I couldn't fight it
     E
I'd hoped you'd see my face
      F#m7(11)
And that you'd be reminded that for me
D   D9(4+)  D    D4+
 it isn't   over

A                  E            F#m  D
  Never mind I'll find someone like you
        A               E        F#m D
I wish nothing but the best for you too
       A           E          F#m        D
Don't forget me I beg I'll remember you said
               A                 E
"Sometimes it lasts in love but sometimes
         F#m      D
it hurts instead"

Bm7(11)
Nothing compares no worries or cares
F#m7/C#
Regrets and mistakes their memories make
  D5
Who would have known how
         Bm    C#m7(5+)     D
Bitter-sweet this would taste

Parte 3:

      D
E|-----0------------0--------------0-----------0-------------|
B|-------3-------------3--------------3----------3-----------|
G|---2-----------2--------------2------------2---------------|
D|-----------------------------------------------------------|
A|-2---------2--------------2-------------2------------------|
E|-----------------------------------------------------------|


       F#m7/C#
E|--------2-------------2----------------2-------------2-----|
B|-----------2-------------2----------------2-------------2--|
G|-----2-------------2----------------2-------------2--------|
D|-----------------------------------------------------------|
A|-4--------------4---------------4--------------4-----------|
E|-----------------------------------------------------------|


      D5
E|-----5------------5--------------5-----------5-------------|
B|-------3-------------3--------------3----------3-----------|
G|---2-----------2--------------2------------2---------------|
D|-----------------------------------------------------------|
A|-2---------2--------------2-------------2------------------|
E|-----------------------------------------------------------|


      Bm                         C#m7(5+)
E|-----7------------7--------------5-----------5-------------|
B|-------7-------------7--------------5----------5-----------|
G|---7-----------7--------------4------------4---------------|
D|-----------------------------------------------------------|
A|----------------------------4------------4-----------------|
E|-7---------7-----------------------------------------------|


      D
E|-----0------------0--------------0-----------0-------------|
B|-------3-------------3--------------3----------3-----------|
G|---2-----------2--------------2------------2---------------|
D|-----------------------------------------------------------|
A|-2---------2--------------2-------------2------------------|
E|-----------------------------------------------------------|


A                  E            F#m  D
  Never mind I'll find someone like you
        A               E        F#m D
I wish nothing but the best for you too
       A           E          F#m        D
Don't forget me I beg I'll remember you said
               A                 E
"Sometimes it lasts in love but sometimes
         F#m      D
it hurts instead"

A                  E            F#m  D
  Never mind I'll find someone like you
        A               E        F#m D
I wish nothing but the best for you too
       A           E          F#m        D
Don't forget me I beg I'll remember you said
               A                 E
"Sometimes it lasts in love but sometimes
         F#m      D
it hurts instead"
               A                 E
"Sometimes it lasts in love but sometimes
         F#m      D
it hurts instead"
  • 1
  • 2
  • 3
  • 4
  • 5
  • 6
  • 7
  • 8
  • 9
  • 10
  • 11
  • 12

    0 comentários

      mostrar mais comentários

      Conseguiu tocar?

      507tocaram2ainda não

      Grave um vídeo tocando Someone Like You e mande pra gente!

      00:00 / 00:00
      outros vídeos desta música
      repetirqualidadeautomática
      • automática
      Outro vídeos desta música
        Capítulos
        • Início
        • Tocando a música
        • Acordes da Introdução ao Pré-refrão
        • Tocando da Introdução ao Pré-refrão
        • Ensinando dedilhado padrão
        • Ensinando Pré-refrão
        • Tocando Refrão
        • Ensinando Refrão
        • Acordes da Terceira Parte
        • Tocando Terceira Parte
        • Ensinando Terceira Parte
        • Encerramento
        00:00 / 00:00
        automática
        • automática
        1 versão de Tab de baixoexibiçõescontribuições
        1 versão de Tab de bateriaexibiçõescontribuições
        1 versão de Tab de gaitaexibiçõescontribuições
        2 versões de Partiturasformatodownloadscontribuição
        fecharplay/pause subir/descer velocidade
          Acordes para:violão e guitarra
          acordes
          fechar
          OK