Cifra Club

Immortal

Adema

Cifra: Principal (violão e guitarra)
Tom: C#
Main Riff
d#---------------------------------------------------------------------|
A#---------------------------------------------------------------------|
F#---------------------------------------------------------------------|
C#---------9-9-9--10-10-10-12-12-12-13-13-13---------9-9-9-10----------|
G#----------------------------------------------------------------3--2-|
D#-0-0-0-0-7-7-7---8--8--8-10-10-10-11-11-11-0-0-0-0-7-7-7--8-----1--0-|
A#--------------------------------------------------------------0------|
                                                                *

d#---------------------------------------------------------------------|
A#---------------------------------------------------------------------|
F#---------------------------------------------------------------------|
C#---------9-9-9--10-10-10-12-12-12-13-13-13---------9-9-9-10----------|
G#---------------------------------------------------------------------|
D#-0-0-0-0-7-7-7---8--8--8-10-10-10-11-11-11-0-0-0-0-7-7-7--8-----3--6-|
A#--------------------------------------------------------------0-1--4-|
                                                                *
(Verse part 1: Bass)


"I can see the fear that breathes, in your heart"
d#-------------------------------------------------------|
A#-------------------------------------------------------|
F#-------------------------------------------------------|
C#-------------------------------------------5-----------|
G#-------------------------------------------5----6----3-|
D#-------------------------------------------3----6----3-|
A#----------------------------------------------0-4--0-1-|
                                                *    *
Verse part 2
(very low volume)"Where will you run..."
d#-------------------------------------------------------------------------|
A#-------------------------------------------------------------------------|
F#-------------------------------------------------------------------------|
C#-------------------------------------------------------------------------|
G#-------------------------------------------------------------------------|
D#-------------------------------------------------------------------------|
A#-5-5-5-5-5-5-5-5-5-5-5-5-3-3-3-3-1-1-1-1-1-1-1-1-0-0-0-0-0-0-0-0-5-5-5-5-|
   * * * * * * * * * * * * * * * * * * * * * * * * * * * * * * * * * * * *

Just before the chorus
d#----------------------------|
A#----------------------------|
F#----------------------------|
C#----------------------------|
G#-------------------------3--|
D#-------------------------3--|
A#---0-5-5-5-5-4-4-4-4-4-1-1--|


Chorus
     "I know who you are..."
d#------------------------------------------------------|
A#------------------------------------------------------|
F#------------------------------------------------------|
C#------------------------12-12-12-12...10-10-10-10...9-|
G#-7--7-7...-10--10-10...-------------------------------|
D#-7--7-7...-10--10-10...-10-10-10-10...-8--8--8--8...7-|
A#-5--5-5...--8---8--8...-------------------------------|

d#--------------------------------------------|
A#--------------------------------------------|
F#--------------------------------------------|
C#------------------------4--4-4...-2--2-2...-|
G#-7--7-7...-10--10-10...-5--5-5...-3--3-3...-|
D#-7--7-7...-10--10-10...-5--5-5...-3--3-3...-|
A#-5--5-5...--8---8--8...-3--3-3...-1--1-1...-|

Repeat the whole thing again (Main Riff, Verse, Etc.)

"Let's fight"
d#------------------------------------|
A#------------------------------------|
F#------------------------------------|
C#------------------------------------|
G#------------------------------------|
D#------------------------------------|
A#-5-5----5-5-4-4----4-1-1---1-1-1-1--|

(Chorus)

Ending Riff
d#-----------------------------------------------------------------|
A#-----------------------------------------------------------------|
F#-----------------------------------------------------------------|
C#-----------------------------------------------------------------|
G#-----------------------------------------------------------------|
D#-----------------------------------------------------------------|
A#-5-5---5-5-4-4---4-1-1---1-1-1-1-5-5---5-5-4-4---4-1-1---1-1-1-1-|


d#-----------------------------------------------------------------|
A#-----------------------------------------------------------------|
F#-----------------------------------------------------------------|
C#-----------------------------------------------------------------|
G#---------------------------------------------------------3-3-3-3-|
D#---------------------------------------------------------3-3-3-3-|
A#-5-5---5-5-4-4---4-1-1---1-1-1-1-5-5---5-5-4-4---4-1-1---1-1-1-1-|
                                                           * * * *

                "You can't kill me              Immortal"
d#-----------------------------------------------------------------|
A#-----------------------------------------------------------------|
F#-----------------------------------------------------------------|
C#-----------------------------------------------------------------|
G#-----------------------------------------------------------------|
D#-----------------------------------------------------------------|
A#-5-5---5-5-4-4---4-1-1---1-1-1-1-5-5---5-5-4-4---4-1-1---1-1-1-1-|


Ending
d#-----------------|
A#-----------------|
F#-----------------|
C#-----------------|
G#-------------6---|
D#-------------6---|
A#-5-5---5-4-4-4---|
exibições 3.127
Acordes para:
    Composição: Adema Colaboração e revisão:
    • Alvaro Cardoso

    0 comentários

    mostrar mais comentários

    Conseguiu tocar?

    0 tocaram 0 ainda não

    Grave um vídeo tocando Immortal e mande pra gente!

    00:00 / 00:00
    outros vídeos desta música
    repetir qualidade Automático
    Outros vídeos desta música
    00:00 / 00:00
    Automático
    OK