Cifra Club

Lindo Céu

Adriana Arydes

Cifra: Principal (violão e guitarra)
tom: C
[Intro]

E|-----------------------------------------------------------------|
B|-8---------------------------------------------------------------|
G|---5-7-7/9-12-10-9-5-----0---------------------------------------|
D|---------------------5p7-----------------------------------------|
A|-----------------------------------------------------------------|
E|-----------------------------------------------------------------|

[Primeira Parte]

 F/A      G/B   C9
Por sobre as nuvens
                 G/B
Existe um lindo céu
   E/G#      Am9
Maravilhoso céu
   F9      C9    G4  G
Morada dos anjos
 F/A      G/B  C9
Por sobre as  nuvens
              G/B
Existe um trono
 E/G#  Am9   F9      C9
Cujo  rei está assentado
   G4   G      C9  G4
À direita de Deus

[Refrão]

 C  C/E     F9
Céu, lindo céu!
       Dm7         Dm/C   G4
É o lugar onde eu quero viver
     G
Pra sempre
 C    C/E   F9         Dm7
Céu, lindo céu! É o lugar
           Dm/C      G4   G
Que o meu Deus preparou pra mim
 C    C/E   F9
Céu, lindo céu!
C/E      Dm7      Dm/C     G4
Onde com os anjos eu cantarei
G              C9
Adorando o Senhor

[Primeira Parte]

 F/A      G/B   C9
Por sobre as nuvens
                 G/B
Existe um lindo céu
   E/G#      Am9
Maravilhoso céu
   F9      C9    G4   G
Morada dos anjos
 F/A      G/B  C9
Por sobre as  nuvens
              G/B
Existe um trono
 E/G#  Am9   F9      C9
Cujo  rei está assentado
   G4   G      C9  G4
À direita de Deus

[Refrão]

 C  C/E     F9
Céu, lindo céu!
       Dm7         Dm/C   G4
É o lugar onde eu quero viver
     G
Pra sempre
 C    C/E   F9         Dm7
Céu, lindo céu! É o lugar
           Dm/C      G4   G
Que o meu Deus preparou pra mim
 C    C/E   F9
Céu, lindo céu!
C/E      Dm7      Dm/C     G4
Onde com os anjos eu cantarei
G              C9
Adorando o Senhor

E|----------------------3--------------15-17-15-13-14--14-15-16-17--|
B|----------8-10-8-6-3--3--13-15-17-18------------------------------|
G|-5-7-9-10-------------5-------------------------------------------|
D|------------------------------------------------------------------|
A|------------------------------------------------------------------|
E|------------------------------------------------------------------|

[Refrão Final]

 D  D/F#  G9
Céu, lindo céu!
       Em7          Em/D   A4
É o lugar onde eu quero viver
     A
Pra sempre
 D    D/F#  G9         Em7
Céu, lindo céu! É o lugar
           Em/D      A4   A
Que o meu Deus preparou pra mim
 D  D/F#    G9
Céu, lindo céu!
D/F#        Em7   Em/D     A4
Onde com os anjos eu cantarei
    A             D9
Adorando o Senhor
Composição de Itallo Villar
245.700 exibições
  • Simplificar cifra
    • ½ Tom
    • A
    • Bb
    • B
    • C
    • Db
    • D
    • Eb
    • E
    • F
    • F#
    • G
    • Ab
  • Adicionar à lista

    0 comentários

    Ver todos os comentários
    00:00 / 00:00
    Outros vídeos desta música
    Repetir Qualidade Automático
    Outros vídeos desta música
    00:00 / 00:00
    Automático

    Cifra Club Pro

    Aproveite o Cifra Club com benefícios exclusivos e sem anúncios
    Cifra Club Pro
    Aproveite o Cifra Club com benefícios exclusivos e sem anúncios
    OK