Cifra Club

Aprenda

Pink

Aerosmith

Cifra: Principal (violão e guitarra)
tom: C
Intro: G F6/9 C9 D4  (3x)
      (Em A7 Fsus2)

G         F6/9        C9     D4/9
Pink it's my new obsession
G         F6/9        C9     D4/9
Pink it's not even a question,
G           F6/9          C9  D4/6/9
Pink on the lips of your lover, 'cause
G           F6/9        C9     D4/9
Pink is the love you discover
G           F6/9        C9     D4/9
Pink as the bing on your cherry
G           F6/9        C9     D4/9
Pink 'cause you are so very
G           F6/9       C9     D4/9
Pink it's the color of passion
G                F              C            D4/9
'Cause today it just goes with the fashion

Refrão:
G           F6/9            C9  D4
Pink it was love at first sight
G           F6/9          C9  D4
Pink when I turn out the light, and
G            F6/9      C9 D4
Pink gets me high as a kite
      Em                  A7
And I think everything is going to be
    Fsus2
all right no matter what we do tonight

G         F6/9        C9     D4/9
You could be my flamingo
G            F6/9            C9     D4/9
'Coz pink is the new kinda lingo
G         F6/9         C9     D4/9
Pink like a deco umbrella
G                F6/9                C9     D4/9
It's kink - but you don't ever tell her

(Refrão)

Solo: G F C , Bb Ab Eb , C Bb F , D

E|--------------------------------------------------------|
B|--13-14-13------12--11--11/14--14~-----12/11--9-11-9~---|
G|------------12----------------------12------------------|
D|--------------------------------------------------------|
A|--------------------------------------------------------|
E|--------------------------------------------------------|

E|------------------------------------------------------------|
B|------------------------------------------------------------|
G|---8-9-8------6/7/6----6/9-9~---------9--13/11---9------9~~-|
D|----------9----------7----------9--11---------------11------|
A|------------------------------------------------------------|
E|------------------------------------------------------------|

E|-------------------------------------------------------------------|
B|---6/7/6-----4/5/4------------7~~--------------7--9(11)-9--7--9--7~|
G|----------6---------4----4/6----------5--7--5----------------8-----|
D|-----------------------------------7-------------------------------|
A|-------------------------------------------------------------------|
E|-------------------------------------------------------------------|

E|--------11--------13---------15----------17----21~~~~-|
B|---7/9------9/11------11/13-------13/15---------------|
G|------------------------------------------------------|
D|------------------------------------------------------|
A|------------------------------------------------------|
E|------------------------------------------------------|


G        F6/9      C9     D4
I want to be your lover
G        F6/9         C9    D4/9
I wanna wrap you in rubber
G              F6/9            C9      D6/9
As pink as the sheets that we lay on
G            F6/9       C9        D4/9
Pink it's my favorite crayon, yeah

(Refrão)

Final: G
Composição de Glen Ballard / Richard Supa / Steven Tyler
Colaboração e revisão:
  • Matheus
  • Rodrigo Rodets
  • Rafael Lemos
149.467 exibições
    • ½ Tom
    • A
    • Bb
    • B
    • C
    • Db
    • D
    • Eb
    • E
    • F
    • F#
    • G
    • Ab
  • Adicionar à lista

    0 comentários

    Ver todos os comentários

    Conseguiu tocar?

    31 Tocaram 1 Ainda não

    Grave um vídeo tocando Pink e nos envie!

    00:00 / 00:00
    Outros vídeos desta música
    Repetir Qualidade Automático
    Outros vídeos desta música
    00:00 / 00:00
    Automático

    Cifra Club Pro

    Aproveite o Cifra Club com benefícios exclusivos e sem anúncios
    Cifra Club Pro
    Aproveite o Cifra Club com benefícios exclusivos e sem anúncios
    OK