Cifra Club

Catch a Hot One

AFI

Cifra: Principal (violão e guitarra)
Selo Cifra Club: esta cifra foi revisada para atender aos critérios oficiais da nossa Equipe de Qualidade.
tom: C
Key:
...    - let ring
*      - play 4 times
|-pm-| - palm mute
7h8    - hammer on
8p7    - pull off
/      - slide up
\      - slide down

Intro/break:
e|----------------------------------------|
B|------------(2x)------------------------|
G|-------8...---------8*-------5-5-5-7-8--|
D|--7...-8...------7*-8*---3*--5-5-5-7-8--|
A|--7...-6...------7*-6*---3*--3-3-3-5-6--|
E|--5...-----------5*------1*-------------|
                 |--pm--|

Verse 1: 
e|---------------------------------------------------|
B|---------------------------------------------------|
G|------5-5-7-8-----10-10-12-12------5-5-7-8-10*-8*--|
D|--7*--5-5-7-8--7*--X--X-XX-XX--7*--5-5-7-8-10*-8*--|
A|--7*--3-3-5-6--7*--8--8-10-10--7*--3-3-5-6--8*-6*--|
E|--5*-----------5*--------------5*------------------|
                                        (listen for exact beat of this)

2nd Part of Verse 1 / This is also Verse 2, after the Chorus:
e|---------------------------------------------------------|
B|---------------------------------------------------------|
G|------5-5-7-8-----10-10-12-12------5-5-7-8-10*-12*-10**--|
D|--7*--5-5-7-8--7*--X--X-XX-XX--7*--5-5-7-8-10*-10*-10**--|
A|--7*--3-3-5-6--7*--8--8-10-10--7*--3-3-5-6--8*-10*--8**--|
E|--5*-----------5*--------------5*------------------------|

Chorus:
e|--------------------------------------------------|
B|--------------------------------------------------|
G|--------------------------------------------------|
D|--7-7------------7-7-------------7-7--------------|
A|--7-7------------7-7-------------7-7--------------|
E|--5-5-(7*-8*-7*)-5-5-(7*-8*-10*)-5-5-(7*-8*-10*)--|
This is after "Show me how to shine now!"
() Indicate bassline, but only here.

e|--------------------------------------------------------------|
B|--------------------------------------------------------------|
G|--------------------------------------------------------------|
D|--7--7-5--3*-5*-7-7-X-7--7--3*-5*-7-7-7-9-9-9-10-10-10-5-5-5--|
A|--7--7-5--3*-5*-7-7-X-7--7--3*-5*-7-7-7-9-9-9-10-10-10-5-5-5--|
E|--5--5-3--1*-3*-5-5-X-5--5--1*-3*-5-5-5-7-7-7--8--8--8-3-3-3--|

e|-------------------------|
B|-------------------------|
G|-------------------------|
D|-3*-5*-7-7-X-7--7--3*-2--|
A|-3*-5*-7-7-X-7--7--3*-2--|
E|-1*-3*-5-5-X-5--5--1*-0--|

Bridge:
e|--------------------------------------|
B|--------(4x)--------------------(2x)--|
G|--9*-7*-----------5**--7**--8**-------|
D|--X*-X*------7**--5**--7**--8**-------|
A|--7*-5-------7**--3**--5**--6**-------|
E|-------------5**----------------------|

e|---------------------|
B|---------------------|
G|-9-9**-10-10**-12**--|
D|-X-X**--X--X**-XX**--|
A|-7-7**--8--8**-10**--|
E|---------------------|
Outros vídeos desta música
    1.834 exibições
      • ½ Tom
      • A
      • Bb
      • B
      • C
      • Db
      • D
      • Eb
      • E
      • F
      • F#
      • G
      • Ab
    • Adicionar à lista

    Afinação da cifra

    Afinador online

      0 comentários

      Ver todos os comentários

      Entre para o Cifra Club PRO

      Tenha acesso a benefícios exclusivos no App e no Site

      • Chega de anúncios

      • Badges exclusivas

      • Mais recursos no app do Afinador

      • Atendimento Prioritário

      • Aumente seu limite de lista

      • Ajude a produzir mais conteúdo

      Cifra Club Pro

      Aproveite o Cifra Club com benefícios exclusivos e sem anúncios
      Cifra Club Pro
      Aproveite o Cifra Club com benefícios exclusivos e sem anúncios
      Ops (: Contenido disponible sólo en portugués.
      OK