Cifra Club

Interview

AFI

Cifra: Principal (violão e guitarra)
Selo Cifra Club: esta cifra foi revisada para atender aos critérios oficiais da nossa Equipe de Qualidade.
tom: B
verse:repeate throughout the whole verse.listen for the timing
E|-----------------------------------------------|
B|---------8-----8---0---7-----------------------|
G|------7-----7----------------------------------|
D|-----------------------------------------------|
A|-----------------------------------------------|
E|-----------------------------------------------|

chorus:
E|--------------------------------------------------------|
B|---------------------------7-----5----------------------|
G|------------------------------7-------------------------|
D|----6--------4------2~------------------4------2--------| x2
A|----4-x16----4-x16--2~------------------4-x4---2-x4-----|
E|----4--------2------0~------------------2------0--------|

After the chorus, you can hear something thats sounds a bit like this:
E|-----------------------------------------------------|
B|--------------8-----------------12---10----8-7----5~-|
G|------8---9--------7-----9---------------------------|
D|-----------------------------------------------------|
A|-----------------------------------------------------|
E|-----------------------------------------------------|
Outros vídeos desta música
    27 exibições
      • ½ Tom
      • A
      • Bb
      • B
      • C
      • Db
      • D
      • Eb
      • E
      • F
      • F#
      • G
      • Ab
    • Adicionar à lista

    Afinação da cifra

    Afinador online

      0 comentários

      Ver todos os comentários

      Entre para o Cifra Club PRO

      Tenha acesso a benefícios exclusivos no App e no Site

      • Chega de anúncios

      • Badges exclusivas

      • Mais recursos no app do Afinador

      • Atendimento Prioritário

      • Aumente seu limite de lista

      • Ajude a produzir mais conteúdo

      Cifra Club Pro

      Aproveite o Cifra Club com benefícios exclusivos e sem anúncios
      Cifra Club Pro
      Aproveite o Cifra Club com benefícios exclusivos e sem anúncios
      Ops (: Contenido disponible sólo en portugués.
      OK