Cifra Club

Miss Murder

AFI

Cifra: Principal (violão e guitarra)
tom: B (forma dos acordes no tom de C) Afinação: Eb Ab Db Gb Bb Eb
E|---------|
B|---------|
G|----5--9-|
D|-7--7--7-|
A|-0-------|
E|---------|
                                pm.....
E|-----------------|(3x)        E|-----------------|
B|-----------------|            B|-----------------|
G|-----7-7-5-5-----|            G|-1-1-1-1-3-3-3-3-|
D|-7-7-7-7-5-5-5-5-|            D|-3-3-3-3-5-5-5-5-|
A|-7-7-5-5-3-3-5-5-|            A|-3-3-3-3-5-5-5-5-|
E|-5-5-5-5-3-3-3-3-|            E|-1-1-1-1-3-3-3-3-|

E|--------------------------------|
B|--------------------------------|
G|-----9-----9-10-10---9---9------|
D|---7-----7---------7---7---7/5-5|
A|-0------------------------------|
E|--------------------------------|

E|-------------------------------|
B|-------------------------------|
G|-------------------------------|
D|-77-77-55-22-----77-77-55-55-2-|
A|-77-77-55-22-----77-77-55-55-2-|
E|-55-55-33-00-----55-55-33-33-0-|

                                pm.....
E|-----------------|(3x)        E|-----------------|
B|-----------------|            B|-----------------|
G|-5-5-7-7-5-5-3-3-|            G|-1-1-1-1-3-3-3-3-|
D|-7-7-7-7-5-5-5-5-|            D|-3-3-3-3-5-5-5-5-|
A|-7-7-5-5-3-3-5-5-|            A|-3-3-3-3-5-5-5-5-|
E|-5-5-5-5-3-3-3-3-|            E|-1-1-1-1-3-3-3-3-|

E|-----------------------------------------------------------------|
B|-----------------------------------------------------------------|
G|-222222-5-222222-222222-7-222222-000000-4-000000--------4--------|
D|-------------------------------------------------222222---222222-|
A|-----------------------------------------------------------------|
E|-----------------------------------------------------------------|

E|----------------------------------------------------------|
B|----------------------------------------------------------|
G|-222222-5-222222-222222-5-22-5-7-2-000000-4-000000----444-|
D|---------------------------------------------------222222-|
A|----------------------------------------------------------|
E|----------------------------------------------------------|

E|-12~~~~~~~~~~~~~~13~~~~~~10~~~~~~7-|
B|-----------------------------------|
G|-----------------------------------|
D|-----------------------------------|
A|-----------------------------------|
E|-----------------------------------|

E|-------------------------------|
B|-------------------------------|
G|-------------------------------|
D|-77-77-55-22-----77-77-55-55-2-|
A|-77-77-55-22-----77-77-55-55-2-|
E|-55-55-33-00-----55-55-33-33-0-|

                                pm.....
E|-----------------|(3x)        E|-----------------|
B|-----------------|            B|-----------------|
G|-5-5-7-7-5-5-3-3-|            G|-1-1-1-1-3-3-3-3-|
D|-7-7-7-7-5-5-5-5-|            D|-3-3-3-3-5-5-5-5-|
A|-7-7-5-5-3-3-5-5-|            A|-3-3-3-3-5-5-5-5-|
E|-5-5-5-5-3-3-3-3-|            E|-1-1-1-1-3-3-3-3-|

E|------------------------------------------------------------------|(2x)
B|------------------------------------------------------------------|
G|---------9-------8-------------------------9-------8--------------|
D|---7-------7---7---7---7-------------7-------7---7---7---7--------|
A|-0---0-0-----0-------0-------------0---0-0-----0-------0----10-10-|
E|-------------------------8-8-8-8-----------------------------8--8-|

                                           pm........
E|----------------------------------------------------------|
B|----------------------------------------------------------|
G|---------9-------8----------------------------------------|
D|---7-------7---7---7---7------------------7-7-7-7-7-7-7-7-|
A|-0---0-0-----0-------0------------10-10---7-7-7-7-7-7-7-7-|
E|-------------------------8-8-8-8---8--8---5-5-5-5-5-5-5-5-|

E|------------------------------------------------------------------|
B|------------------------------------------------------------------|
G|---------9-------8-------------------------9-------8--------------|
D|---7-------7---7---7---7-------------7-------7---7---7---7--------|
A|-0---0-0-----0-------0-------------0---0-0-----0-------0----10-10-|
E|-------------------------8-8-8-8-----------------------------8--8-|

pm.......................
E|----------------------------------------------------------|
B|----------------------------------------------------------|
G|---------9-------8----------------------------------------|
D|---7-------7---7---7---7------------------7-7-7-7-7-7-7-7-|
A|-0---0-0-----0-------0------------10-10---7-7-7-7-7-7-7-7-|
E|-------------------------8-8-8-8---8--8---5-5-5-5-5-5-5-5-|

E|---------------------------|
B|---------------------------|
G|---------------------------|
D|---------------------------|
A|-7-7-9-9-10-10-5-5-7-7-9-9-|
E|-5-5-7-7--8--8-3-3-5-5-7-7-|

                                pm.....
E|-----------------|(3x)        E|-----------------|
B|-----------------|            B|-----------------|
G|-5-5-7-7-5-5-3-3-|            G|-1-1-1-1-3-3-3-3-|
D|-7-7-7-7-5-5-5-5-|            D|-3-3-3-3-5-5-5-5-|
A|-7-7-5-5-3-3-5-5-|            A|-3-3-3-3-5-5-5-5-|
E|-5-5-5-5-3-3-3-3-|            E|-1-1-1-1-3-3-3-3-|

                                pm.....
E|-----------------|(3x)        E|-----------------|    E|-----|
B|-----------------|            B|-----------------|    B|-----|
G|-5-5-7-7-5-5-3-3-|            G|-1-1-1-1-3-3-3-3-|    G|-----|
D|-7-7-7-7-5-5-5-5-|            D|-3-3-3-3-5-5-5-5-|    D|-7-7-|
A|-7-7-5-5-3-3-5-5-|            A|-3-3-3-3-5-5-5-5-|    A|-7-7-|
E|-5-5-5-5-3-3-3-3-|            E|-1-1-1-1-3-3-3-3-|    E|-5-5-|

Guitarra 2:
E|-55555555-77777777-88888888-33333333-55555555-77777777-10-10-10-10-10-10-10-10-88888888-|
B|----------------------------------------------------------------------------------------|
G|----------------------------------------------------------------------------------------|
D|----------------------------------------------------------------------------------------|
A|----------------------------------------------------------------------------------------|
E|----------------------------------------------------------------------------------------|

E|-55555555-77777777-88888888-33333333-5555555555555555-4444444444444444-|
B|-----------------------------------------------------------------------|
G|-----------------------------------------------------------------------|
D|-----------------------------------------------------------------------|
A|-----------------------------------------------------------------------|
E|-----------------------------------------------------------------------|

Letra:

Hey Miss Murder can I?
Hey Miss Murder can I?
Make beauty stay if I
Take my life? (Whoa oh oh)

With just a look
They shook
And heavens bowed before him
Simply a look
Can break
Your heart.

The stars that pierce the sky
He left them all behind
We're left to wonder why
He left us all ... behind

Hey Miss Murder can I?
Hey Miss Murder can I?
Make beauty stay if I
Take my life? (Whoa oh oh)

Dreams of his crash
Won't pass
Oh how they all adored him
Beauty will last
When spiraled
Down.

The stars that mystify
He left them all behind
And how his children cried
He left us all ... behind

Hey Miss Murder can I?
Hey Miss Murder can I?
Make beauty stay if I
Take my life? (Whoa oh oh)

What's the hook, the twist within this verbose mystery?
I would gladly bet my life upon it
that the ghost you love, your ray of light will fizzle out
Without hope, hope. We're the empty set just floating through wrapped, in skin,
Ever searching for what we were promised
Reaching for that golden ring we'd never let [it] go...
who would ever let us put our filthy hands upon it?

Hey Miss Murder can I?
Hey Miss Murder can I?
Make beauty stay if I
Take my life?(Whoa oh oh)

Hey Miss Murder can I?
Hey Miss Murder can I?
Make beauty stay if I
Take my life?(Whoa oh oh)
00:00 / 00:00
Outros vídeos desta música
Repetir
Outros vídeos desta música
Composição de AFI
Colaboração e revisão:
  • Bruno Oliveira
  • Wesley Santos
37.609 exibições
    • ½ Tom
    • A
    • Bb
    • B
    • C
    • Db
    • D
    • Eb
    • E
    • F
    • F#
    • G
    • Ab
  • Adicionar à lista

    0 comentários

    Ver todos os comentários

    Entre para oCifra Club PRO

    Tenha acesso a benefícios exclusivos no App e no Site

    • Chega de anúncios

    • Prioridade de compra em lançamentos

    • Mais recursos no app do Afinador

    • Atendimento Prioritário

    • Descontos nos produtos Cifra Club

    • Ajude a produzir mais conteúdo

    00:00 / 00:00

    Cifra Club Pro

    Aproveite o Cifra Club com benefícios exclusivos e sem anúncios
    Cifra Club Pro
    Aproveite o Cifra Club com benefícios exclusivos e sem anúncios
    OK