Cifra Club

Heaven

After School

Cifra: Principal (violão e guitarra)
Selo Cifra Club: esta cifra foi revisada para atender aos critérios oficiais da nossa Equipe de Qualidade.
tom: Db
E|-(6)-|-(9)--|-(7)-|
B|--6--|--9---|--7--|
G|--6--|--10--|--8--|
D|--8--|--11--|--9--|
A|-(8)-|-(11)-|-(9)-|
E|-(6)-|-(9)--|-(7)-|

Verse
  A#m
e|----------------|------------------|
B|-6-6-x-6-6-x-8~-|-6-6-x-6-x-8-6-xx-|
G|-6-6-x-6-6-x-6~-|-6-6-x-6-x-6-6-xx-|
D|-8-8-x-8-8-x-8~-|-8-8-x-8-x-8-8-xx-|
A|----------------|------------------|
E|----------------|------------------|




Pre-Chorus

(notes in parentheses are played by bass)

*part 1*
  A#m
E|-----------------------------------|
B|-----------------------------------|
G|---------------6-------------------|
D|-6-8-8---8-6-8-----8-8-6-8---------|
A|-----------------------------(6/8)-|
E|-----------------------------------|
pm . . .   . . . .   . . . .


*part 2*
  C#
E|-------------------------------|
B|-------------------------------|
G|---------------------6---------|
D|-6-8-8---8-8---8-6-8-----(4/6)-|
A|-------------------------------|
E|-------------------------------|
pm . . .   . .   . . . .


*part 1*
  B


*part 3*
  A#m
E|-------------------------------|
B|-------------------------------|
G|-------6-------------6---------|
D|-----6---8-8---8-6-8-----(4/6)-|
A|-6-8---------------------------|
E|-------------------------------|
pm . . . . . .   . . . .


Chorus

(Play 11 on e string on second time through) 
  A#m                 C#
E|-------------------|------------------(11)---|
B|-6-xx-6-xx-6666-xx-|-9--x9-9--9--9-9-9-9--xx-|
G|-6-xx-6-xx-6666-xx-|-10-x1010-10-10101010-xx-|
D|-8-xx-8-xx-8888-xx-|-11-x1111-11-11111111-xx-|
A|-------------------|-------------------------|
E|-------------------|-------------------------|
  B                 A#m  
e|-----------------|-----------------|
B|-7-x77-7-7777-xx-|-6-x66-x6-x66-xx-|
G|-8-x88-8-8888-xx-|-6-x66-x6-x66-xx-|
D|-9-x99-9-9999-xx-|-8-x88-x8-x88-xx-|
A|-----------------|-----------------|
E|-----------------|-----------------|

(Chorus ending)
  A#m             B A#m
e|--------|-----------|
B|-x6-x66-|-x6-x6~7~6-|
G|-x6-x66-|-x6-x6~8~6-|
D|-x8-x88-|-x8-x8~9~8-|
A|(play---|-----------|
E|-7t| imes)|-----------|
Outros vídeos desta música
    28 exibições
      • ½ Tom
      • A
      • Bb
      • B
      • C
      • Db
      • D
      • Eb
      • E
      • F
      • F#
      • G
      • Ab
    • Adicionar à lista

    Afinação da cifra

    Afinador online

      0 comentários

      Ver todos os comentários

      Conseguiu tocar?

      0Tocaram0Ainda não

      Grave um vídeo tocando Heaven e nos envie!

      Toque também

      1. Imagem do artista 4MinuteHeart To Heart 4Minute
      2. Imagem do artista Orange CaramelLipstick Orange Caramel
      3. Imagem do artista HELLOVENUSDo You Want Some Tea HELLOVENUS
      4. Imagem do artista KARAHoney KARA

      Entre para o Cifra Club PRO

      Tenha acesso a benefícios exclusivos no App e no Site

      • Chega de anúncios

      • Badges exclusivas

      • Mais recursos no app do Afinador

      • Atendimento Prioritário

      • Aumente seu limite de lista

      • Ajude a produzir mais conteúdo

      Cifra Club Pro

      Aproveite o Cifra Club com benefícios exclusivos e sem anúncios
      Cifra Club Pro
      Aproveite o Cifra Club com benefícios exclusivos e sem anúncios
      Ops (: Contenido disponible sólo en portugués.
      OK