Cifra Club

Aprenda

The Curse

Agnes Obel

Cifra: Principal (violão e guitarra)
tom: A
[Intro] Fm  G#  Cm  Bb

[Primeira Parte]

[Parte 1 de 2]

   Fm          G#          Cm          Bb
E|------------------------------------------|
B|---x---1---x---x---4---x------------------|
G|---x---1---x---x---5---x---x---5---x---x--|
D|---x---1---x---x---6---x---x---5---x---x--|
A|-3---x---x---6---x---x---3---x---x---1---x|
E|------------------------------------------|

[Parte 2 de 2]

E|------------------------------------------|
B|------------------------------------------|
G|-3---x------------------------------------|
D|-3---x------------------------------------|
A|---x--------------------------------------|
E|------------------------------------------|

Fm      G#            Cm           Bb
And the people went into their hideaways
Fm                  G#           Cm         Bb
From the start they didn't know exactly why, why
Fm              G#             Cm          Bb
Winter came and made it so all look alike, look alike
Fm             G#                Cm            Bb
Underneath the grass would grow, aiming at the sky

   Fm  G#  Cm  Bb
E|---1---4---3---1--------------------------|
B|---1---4---4---3--------------------------|
G|---1---5---5---3--------------------------|
D|-3---6---5---3----------------------------|
A|-3---6---3---1----------------------------|
E|-1---4---3---1----------------------------|

Fm            G#           Cm                 Bb
It was swift, it was just another wave of the miracles
Fm            G#                 Cm         Bb
But no-one, nothing at all would go for the kill
Fm                G#         Cm           Bb
If they called on every soul in the land, on the moon
Fm        G#                Cm             Bb
Only then would they know a blessing in disguise

[Parte 1 de 2]

   Fm              G#              Cm
E|------------------------------------------|
B|---1---1---1---1--------------------------|
G|---1---1---1---1---5---5---5---5---5-3---3|
D|-------------------6---6---6---6----------|
A|-3---3---3---3---6---6---6---6---3-----3--|
E|------------------------------------------|

[Parte 2 de 2]

     Bb
E|------------------------------------------|
B|------------------------------------------|
G|------------------------------------------|
D|-6---3-1---1-0----------------------------|
A|---1-----1--------------------------------|
E|------------------------------------------|

[Refrão]

Fm          G#                Cm           Bb
The curse ruled from the underground, down by the shore
      Fm       G#             Cm        Bb
Their hope grew with a hunger to live unlike before
Fm          G#                Cm           Bb
The curse ruled from the underground, down by the shore
      Fm       G#             Cm        Bb
Their hope grew with a hunger to live unlike before

[Segunda Parte]

[Parte 1 de 2]

   Fm          G#          Cm          Bb
E|------------------------------------------|
B|---x---1---x---x---4---x------------------|
G|---x---1---x---x---5---x---x---5---x---x--|
D|---x---1---x---x---6---x---x---5---x---x--|
A|-3---x---x---6---x---x---3---x---x---1---x|
E|------------------------------------------|

[Parte 2 de 2]

E|------------------------------------------|
B|------------------------------------------|
G|-3---x------------------------------------|
D|-3---x------------------------------------|
A|---x--------------------------------------|
E|------------------------------------------|

Fm                 G#             Cm          Bb
Tell me now of the very souls who look alike, look alike
Fm               G#                 Cm             Bb
Do you know the stranglehold that's covering their eyes?
Fm            G#        Cm           Bb
If I call on every soul in the land, on the moon
Fm              G#          Cm             Bb
Tell me if I'll ever know a blessing in disguise 

[Parte 1 de 2]

   Fm              G#              Cm
E|------------------------------------------|
B|---1---1---1---1--------------------------|
G|---1---1---1---1---5---5---5---5---5-3---3|
D|-------------------6---6---6---6----------|
A|-3---3---3---3---6---6---6---6---3-----3--|
E|------------------------------------------|

[Parte 2 de 2]

     Bb
E|------------------------------------------|
B|------------------------------------------|
G|------------------------------------------|
D|-6---3-1---1-0----------------------------|
A|---1-----1--------------------------------|
E|------------------------------------------|

[Refrão]

Fm          G#                Cm           Bb
The curse ruled from the underground, down by the shore
      Fm       G#             Cm        Bb
Their hope grew with a hunger to live unlike before
Fm          G#                Cm           Bb
The curse ruled from the underground, down by the shore
      Fm       G#             Cm        Bb
Their hope grew with a hunger to live unlike before
Composição de Agnes Obel
Colaboração e revisão:
  • Jonathan Oliveira
1.122 exibições
    • ½ Tom
    • A
    • Bb
    • B
    • C
    • Db
    • D
    • Eb
    • E
    • F
    • F#
    • G
    • Ab
  • Adicionar à lista

    0 comentários

    Ver todos os comentários

    Conseguiu tocar?

    0 Tocaram 0 Ainda não

    Grave um vídeo tocando The Curse e nos envie!

    00:00 / 00:00
    Outros vídeos desta música
    Repetir Qualidade Automático
    Outros vídeos desta música
    00:00 / 00:00
    Automático

    Cifra Club Pro

    Aproveite o Cifra Club com benefícios exclusivos e sem anúncios
    Cifra Club Pro
    Aproveite o Cifra Club com benefícios exclusivos e sem anúncios
    OK