Cifra Club

Dançando

Agridoce

Cifra: Principal
exibições 163.567
Tom: A
Intro: A  F#m  D  E

Dedilhado da introdução e primeira parte:

         A                               F#m                        D                             E
E|--------------0-------------------------------0--------0-----------------0-------------------------------
B|--------0h2------------0h2--------------0h2--------------2---------0h2------------0h2------------0h2-----
G|----2--------------2----------2-----2--------------2-----------2--------------2---------2----2---------2-
D|-------------------------------------------------------------0---0-----0----0---0-----0------------------
A|--0---0-----0----0---0-----0-----------------------------------------------------------------------------
E|----------------------------------2---2-----2----2---2-------------------------------------0---0-----0---

-----------------|
--------2--------|
----1-------1----|
-----------------|
-----------------|
--0---0---0---0--|

A
   Eu sei que lá no fundo
F#m
   Há tanta beleza no mundo
D                 E
Eu só queria enxergar
A
  As tardes de domingo
F#m
  O dia me sorrindo
D                 E
Eu só queria enxergar

         F#m                       E
E|-----------------------------------------------------|
B|--------2------------2-------------2------------2----|
G|----2-----2-----2------2------2------2-----1------1--| (2x)
D|-----------------------------------------------------|
A|-----------------------------------------------------|
E|--2---2----2--2---2------2--0---0-----0--0---0-----0-|


F#m                     E
   Qualquer coisa pra domar o peito em fogo.
F#m                E
   Algo pra justificar uma vida morna.


Refrão 2x:

         A                              F#m                          D                            F#m
E|--------------0-------------------------------0---------------------------0------------------------------
B|--------0h2------------0h2--------------0h2-----------0h2----------0h2------------0h2-------------0h2----
G|----2--------------2----------2----2--------------2--------2----2--------------2---------2----2---------2
D|--------------------------------------------------------------0---0-----0----0---0-----0-----------------
A|--0---0-----0----0---0-----0-----------------------------------------------------------------------------
E|---------------------------------2---2-----2----2---2----2---------------------------------2----2-----2--

          E
-----------------|E
--------2--------|B
----1-------1----|G
-----------------|D
-----------------|A
--0---0---0---0--|E

   A
O mundo acaba hoje eu estarei dançando
   F#m
O mundo acaba hoje eu estarei dançando
   D                                        F#m  E
O mundo acaba hoje eu estarei dançando com você

         F#m                       D           E
E|----------------------------------------------|           E|----------------|
B|--------2-----------2-----------2-----------2-|           B|--------0h2-----|
G|----2-----------2-----------2-----------1-----|           G|----2---------2-|  (4X)
D|--------------------------0---0---------------|           D|----------------|
A|----------------------------------------------|           A|--0---0-----0---|
E|--2---2-------2---2-------------------0---0---|           E|----------------|

segunda parte:

          A                              F#m                        D                             E
E|--------------0-------------------------------0--------0-----------------0-------------------------------
B|--------0h2------------0h2--------------0h2--------------2---------0h2------------0h2------------0h2-----
G|----2--------------2----------2-----2--------------2-----------2--------------2---------2----2---------2-
D|-------------------------------------------------------------0---0-----0----0---0-----0------------------
A|--0---0-----0----0---0-----0-----------------------------------------------------------------------------
E|----------------------------------2---2-----2----2---2-------------------------------------0---0-----0---

-----------------|E
--------2--------|B
----1-------1----|G
-----------------|D
-----------------|A
--0---0---0---0--|E

A
   Não esqueço aquela esquina
F#m
   A graça da menina
D                  E
Eu só queria enxergar
A
   Por isso eu me entrego
F#m
   A um imediatismo cego
D                   E
Pronta pro mundo acabar

          F#m                       E
E|-----------------------------------------------------|
B|--------2------------2-------------2------------2----|
G|----2-----------2-------------1------------1---------| (2x)
D|-----------------------------------------------------|
A|-----------------------------------------------------|
E|--2---2-------2---2---------0---0--------0---0-------|

F#m                   E
   Você acredita no depois ? Prefiro o agora.
F#m                        E
   Se no fim formos só nós dois, que seja lá fora

Refrão 2x:

          A                               F#m                         D                            F#m
E|--------------0-------------------------------0---------------------------0------------------------------
B|--------0h2------------0h2--------------0h2-----------0h2----------0h2------------0h2-------------0h2----
G|----2--------------2----------2----2--------------2--------2----2--------------2---------2----2---------2
D|--------------------------------------------------------------0---0-----0----0---0-----0-----------------
A|--0---0-----0----0---0-----0-----------------------------------------------------------------------------
E|---------------------------------2---2-----2----2---2----2---------------------------------2----2-----2--

           E
-----------------|E
--------2--------|B
----1-------1----|G
-----------------|D
-----------------|A
--0---0---0---0--|E

  A
O mundo acaba hoje eu estarei dançando
  F#m
O mundo acaba hoje eu estarei dançando
  D                                        F#m  E
O mundo acaba hoje eu estarei dançando com você

         F#m                       D           E
E|----------------------------------------------|           E|----------------|
B|--------2-----------2-----------2-----------2-|           B|--------0h2-----|
G|----2-----------2-----------2-----------1-----|           G|----2---------2-|  (4X)
D|--------------------------0---0---------------|           D|----------------|
A|----------------------------------------------|           A|--0---0-----0---|
E|--2---2-------2---2-------------------0---0---|           E|----------------|

Parte Instumental: D7+  A   A9
Acordes para:
    Composição: Pitty / MartinColaboração e revisão:

    0 comentários

      mostrar mais comentários

      Conseguiu tocar?

      103tocaram2ainda não

      Grave um vídeo tocando Dançando e mande pra gente!

      00:00 / 00:00
      outros vídeos desta música
      repetirqualidadeautomática
      Outro vídeos desta música
        00:00 / 00:00
        automática
        OK