Cifra Club

Aprenda

Breathles

Aiden

Cifra: Principal (violão e guitarra)
tom: G
Intro:
(0:00-0:24)
E|----------------------|
B|----------------------|
G|--8--10--8--8---------|   (4x)
D|--9--11--9--9---------|
A|--9--11--9--9---------|
E|--7--9---7--0---------|

Verso:
(0:25-0:40)
E|------------------------------------------------------|
B|------------------------------------------------------| 
G|------10-----11-----10-----11-------------------------|   (2x)
D|--8-8----8-8----8-8----8-8--------11/13-----11/13-----|
A|------------------------------9-9-------9-9-----------|
E|------------------------------------------------------|

Ponte:
(0:41-0:45)
E|----------------------|
B|----------------------|
G|----------------------|
D|-------8-9-11-9-8-----|
A|--9-11------------9---|
E|----------------------|

Refrão:
(0:45-1:00)
E|--------------------------------------------------|
B|--------------------------------------------------|
G|-11-10-8----11-10-8----11-10-8----11-13-11-10-----|
D|---------11---------11---------11-----------------|
A|--------------------------------------------------|
E|--------------------------------------------------|

Verso 2:
(1:00-1:16)
E|------------------------------------------------------|
B|------------------------------------------------------|
G|------10-----11-----10-----11-------------------------|   (2x)
D|--8-8----8-8----8-8----8-8--------11/13-----11/13-----|
A|------------------------------9-9-------9-9-----------|
E|------------------------------------------------------|

Ponte:
(1:16-1:20)
E|----------------------|
B|----------------------|
G|----------------------|
D|-------8-9-11-9-8-----|
A|--9-11------------9---|
E|----------------------|

Refrão 2:
(1:21-1:52)
E|--------------------------------------------------|
B|--------------------------------------------------|
G|-11-10-8----11-10-8----11-10-8----11-13-11-10-----|   (2x)
D|---------11---------11---------11-----------------|
A|--------------------------------------------------|
E|--------------------------------------------------|

Passagem:
(1:53 / 2:23)
E|--7--/--|     |-------------------|
B|--7--/--|     |-------------------|
G|--8--/--|     |-------------------|   (2x)
D|--9--/--|     |-2--4--6--9--4-----|
A|--9--/--|     |-2--4--6--9--4-----|
E|--7--/--|     |-0--2--4--7--2-----|
              pm .  .  .

Refrão 3:
(2:27-2:38)
E|--/----------------------------------------|
B|--/----------------------------------------|
G|--/--11-10-8----11-10-8----11-13-11-10-----|
D|--/----------11---------11-----------------|
A|--/----------------------------------------|
E|--/----------------------------------------|

Refrão 4:
(2:39-2:55)
E|--------------------------------------------------|
B|--------------------------------------------------|
G|-11-10-8----11-10-8----11-10-8----11-13-11-10-----|
D|---------11---------11---------11-----------------|
A|--------------------------------------------------|
E|--------------------------------------------------|

Outro:
(2:55-3:10)
E|-------------------------------|
B|-------------------------------|
G|--8--10--8--8--8--10--8--7-----|
D|--9--11--9--9--9--11--9--8-----|
A|--9--11--9--9--9--11--9--8-----|
E|--7--9---7--0--7--9---7--6-----|
Composição de Aiden
Colaboração e revisão:
  • Jefferson Sousa
75 exibições
    • ½ Tom
    • A
    • Bb
    • B
    • C
    • Db
    • D
    • Eb
    • E
    • F
    • F#
    • G
    • Ab
  • Adicionar à lista

    0 comentários

    Ver todos os comentários

    Conseguiu tocar?

    0 Tocaram 0 Ainda não

    Grave um vídeo tocando Breathles e nos envie!

    00:00 / 00:00
    Outros vídeos desta música
    Repetir Qualidade Automático
    Outros vídeos desta música
    00:00 / 00:00
    Automático

    Cifra Club Pro

    Aproveite o Cifra Club com benefícios exclusivos e sem anúncios
    Cifra Club Pro
    Aproveite o Cifra Club com benefícios exclusivos e sem anúncios
    OK