Cifra Club

Aprenda

Genetic Design For Dying

Aiden

Cifra: Principal (violão e guitarra)
tom: Bb
GENETIC DESIGN FOR DYING by_Fran(g.O)^^

C G# Eb Bb
Dear Mother, I am lost and the damage has been done.
I'm in love with my old century fix and this needle can't be wrong, but I wonder, 

C G# Eb Bb + Riff1
where do we go from here?
Because we're never coming home. T
he sequel to this nightmare lasts forever, forever.

Eb C G# Bb + Riff2
One last goodnight with this painted picture in our minds,
the voice inside that sings tonight.
One last goodnight with this painted picture in our minds,
the voice inside that sings tonight.

Eb Bb G# Bb + Riff 3
I'm not scared at all, so let's walk away.

C G# Eb Bb
Dear Mother, now beyond this grave, you're the soul that wants me.
Front row with a cigarette, you're the ghost that haunts me, but I wonder,

C G# Eb Bb + Riff1
I'm too fucked up to come home. I swear this heart was made of stone.
I wont pretend that everything's alright when its not.

Eb C G# Bb + Riff2
One last goodnight with this painted picture in our minds,
the voice inside that sings tonight.
One last goodnight with this painted picture in our minds,
the voice inside that sings tonight.

Eb Bb G# Bb + Riff 3
I'm not scared at all, so lets walk away.

Rif4 (ABAFADO NA PRIMEIRA, NA SEGUNDA NORMAL)
Wake me now, drive faster, make me now a disaster.
Take me now, live after and walk away.

C G# A# D# (tem q escuta pra pega o tempo)
Can you design living through hell and back again?
It's the life that's killing you.
Walk away. WALK AWAY!!!

Eb C G# Bb + Riff2
One last goodnight with this painted picture in our minds,
the voice inside that sings tonight.
One last goodnight with this painted picture in our minds,
the voice inside that sings tonight.

Riff1
|-----------------------------------------------------------------------------------------
|---------------------------------------------------------------------11-11---------------
|-(8)-(8)--8-8-12-12-8-8--(8)-(8)-8-8-12-12-8-8--(8)-(8)-8-8-12-12-8-8------8-8-12-12-8-8-
|-----------------------------------------------------------------------------------------
|-----------------------------------------------------------------------------------------
|-----------------------------------------------------------------------------------------

Riff2(escuta pra pega a batida)
|------------------
|------------------
|-8---12---8---10--
|------------------
|-6---10---6---8---
|------------------

Riff3(escuta pra pega a batida)
|------------------
|------------------
|-12---10--8---10--
|------------------
|-10---8---6---8---
|------------------

Riff4
|-------------------------------------
|-------------------------------------
|-------------------------------------
|-8-8-8-8--6-6-6-6--5-5-5-5-5-5-5-5-5-
|-------------------------------------
|-------------------------------------
Composição de Aiden
Colaboração e revisão:
  • Frango Iero
1.614 exibições
    • ½ Tom
    • A
    • Bb
    • B
    • C
    • Db
    • D
    • Eb
    • E
    • F
    • F#
    • G
    • Ab
  • Adicionar à lista

    0 comentários

    Ver todos os comentários

    Conseguiu tocar?

    0 Tocaram 0 Ainda não

    Grave um vídeo tocando Genetic Design For Dying e nos envie!

    00:00 / 00:00
    Outros vídeos desta música
    Repetir Qualidade Automático
    Outros vídeos desta música
    00:00 / 00:00
    Automático

    Cifra Club Pro

    Aproveite o Cifra Club com benefícios exclusivos e sem anúncios
    Cifra Club Pro
    Aproveite o Cifra Club com benefícios exclusivos e sem anúncios
    OK