Cifra Club

Aprenda

See You In Hell

Aiden

Cifra: Principal (violão e guitarra)
tom: C
Intro

Rhythm Guitar
E/--------------------------------------------------------------------|
B/--------------------------------------------------------------------|
G/--------------------------------------------------------------------| x 2
D/-4444444444----2222222222----0000000000----0000000000---------------|
A/-4444444444----2222222222----0000000000----0000000000---------------|
D/-4444444444----2222222222----0000000000----0000000000---------------|

Lead Guitar
E/--------------------------------------------------------------------|
B/---------------55555-44444------------------------------------------|
G/-33333-44444---xxxxx-xxxxx---444444444-444444444--------------------| x 2
D/-xxxxx-xxxxx---22222-11111---xxxxxxxxx-xxxxxxxxx--------------------|
A/-11111-22222-----------------222222222-222222222--------------------|
D/--------------------------------------------------------------------|

Verse

Lead
E/--------------------------------------------------------------------|
B/--------------------------------------------------------------------|
G/--------------------------------------------------------------------|
D/--10-9-10--9--9h10p9h10---10-9-10-9-9h10p9h10---10-9-10-9-9h10p9h10-|
A/----0-0--0--0---------------0-0--0-0--------------0-0--0-0----------|
D/--------------------------------------------------------------------|
      x x  x  x               x x  x x              x x  x x

E/--------------------------------------------------------------------|
B/--------------------------------------------------------------------|
G/--------------------------------------------------------------------| x 2
D/--10-9-12--9--9h10p9h10---------------------------------------------|
A/----0-0--0--0-------------------------------------------------------|
D/--------------------------------------------------------------------|
      x x  x  x

Rhythm Guitar
E/--------------------------------------------------------------------|
B/--------------------------------------------------------------------|
G/--------------------------------------------------------------------|
D/--------------------22222222222---0000000000---22222222222----------|
A/--------------------22222222222---0000000000---22222222222----------|
D/--------------------22222222222---0000000000---22222222222----------|
                      xxxxxxxxxxx   xxxxxxxxxx   xxxxxxxxxxx

E/--------------------------------------------------------------------|
B/--------------------------------------------------------------------|
G/--------------------------------------------------------------------|
D/-----4444444444---2222222222---0000000000---2222222222--------------|
A/-----4444444444---2222222222---0000000000---2222222222--------------|
D/-----4444444444---2222222222---0000000000---2222222222--------------|
       xxxxxxxxxx   xxxxxxxxxx   xxxxxxxxxx   xxxxxxxxxx

Pre Chorus

Rhythm
E/--------------------------------------------------------------------|
B/--------------------------------------------------------------------|
G/--------------------------------------------------------------------|
D/-----0000000000---2222222222---0000000000---2~----------------------|
A/-----0000000000---2222222222---0000000000---2~----------------------|
D/-----0000000000---2222222222---0000000000---2~----------------------|

Lead
E/-----------------------------------------2*--------------------------|
B/-------------55555-44444---------------------------------------------|
G/-333-444-333-xxxxx-xxxxx----333-444-333------------------------------|
D/-xxx-xxx-xxx-22222-22222----xxx-xxx-xxx------------------------------|
A/-111-222-111----------------111-222-111------------------------------|
D/---------------------------------------------------------------------|

E/---------------------------------------------------------------------|
B/-------------55555-44444---------------------------------------------|
G/-333-444-333-xxxxx-xxxxx--------333333-444444------------------------|
D/-xxx-xxx-xxx-22222-22222--------xxxxxx-xxxxxx------------------------|
A/-111-222-111--------------------111111-222222------------------------|
D/---------------------------------------------------------------------|

Chorus

Rhythm Guitar
E/--------------------------------------------------------------------|
B/--------------------------------------------------------------------|
G/--------------------------------------------------------------------| x 2
D/-4444444444----2222222222----0000000000----0000000000---------------|
A/-4444444444----2222222222----0000000000----0000000000---------------|
D/-4444444444----2222222222----0000000000----0000000000---------------|

Lead Guitar
E/--------------------------------------------------------------------|
B/---------------55555-44444------------------------------------------|
G/-33333-44444---xxxxx-xxxxx---444444444-444444444--------------------|
D/-xxxxx-xxxxx---22222-11111---xxxxxxxxx-xxxxxxxxx--------------------| x 2
A/-11111-22222-----------------222222222-222222222--------------------|
D/--------------------------------------------------------------------|

Bridge

Both Guitars
E/--------------------------------------------------------------------|
B/--------------------------------------------------------------------|
G/--------------------------------------------------------------------|
D/-444-------222---------0000000000-0000000000------------------------|
A/-444-------222---------0000000000-0000000000------------------------|
D/-444-------222---------0000000000-0000000000------------------------|

E/--------------------------------------------------------------------|
B/--------------------------------------------------------------------|
G/--------------------------------------------------------------------|
D/-444444444--2222222222--0000000000-0000000000-----------------------|
A/-444444444--2222222222--0000000000-0000000000-----------------------|
D/-444444444--2222222222--0000000000-0000000000-----------------------|
     xxxxxxx    xxxxxxxx    xxxxxxxx   xxxxxxxx
Composição de Aiden
613 exibições
    • ½ Tom
    • A
    • Bb
    • B
    • C
    • Db
    • D
    • Eb
    • E
    • F
    • F#
    • G
    • Ab
  • Adicionar à lista

    0 comentários

    Ver todos os comentários

    Conseguiu tocar?

    0 Tocaram 0 Ainda não

    Grave um vídeo tocando See You In Hell e nos envie!

    00:00 / 00:00
    Outros vídeos desta música
    Repetir Qualidade Automático
    Outros vídeos desta música
    00:00 / 00:00
    Automático

    Cifra Club Pro

    Aproveite o Cifra Club com benefícios exclusivos e sem anúncios
    Cifra Club Pro
    Aproveite o Cifra Club com benefícios exclusivos e sem anúncios
    OK