Cifra Club

Aprenda

We Sleep Forever

Aiden

Cifra: Principal (violão e guitarra)
tom: F
Rain In Hell-EP

Drop D*
*note that i wrote it as standard tuning but just ignore that

^=1/4 Bend

Intro
Guitar 1
0:00-0:03
e|------------------------|
B|---7-6---7-6---7-6^-----|
G|------------------------|
D|-8-----8-----8----------| x2 then 
A|------------------------|
E|------------------------|

e|--------------|
B|---9-7-6--7-6-|
G|--------------|
D|-8-------8----| play till 0:18
A|--------------|
E|--------------|

Then Guitar 2 comes in with
0:03-0:18
e|----------------------------------------|
B|----------------------------------------|
G|----------------------------------------|
D|-888-6-6-666-4-4-888-6-6-666-4-xxxxxxx--| 
A|-888-6-6-666-4-4-888-6-6-666-4-xxxxxxx--|
E|-888-6-6-666-4-4-888-6-6-666-4-xxxxxxx--|
play that twice but instead of ending on the x's 
end on this

e|---------|
B|---------|
G|---------|
D|-4444444-| x4 (relatively fast) 
A|-4444444-|
E|-4444444-|

Bass, Drums And Drums Through Here 

Verse
Then Guitar 2 Comes in with
this at 0:35 playtill 0:44

Guitar 2 Only
0:35-0:44
e|----------------------|
B|----------------------|
G|----------------------|
D|----------------------| repeat till
A|-44-66-44-66----------| pre chorus
E|----------------------|
pm .. .. .. ..

Pre Chorus
Guitar 1
0:44-0:46
e|------------------------|
B|---7-6---7-6---7-6^-----|
G|------------------------|
D|-8-----8-----8----------| x1 
A|------------------------|
E|------------------------|

Chorus
0:46-1:02
Guitars 1 and 2
e|----------------------------------------|
B|----------------------------------------|
G|----------------------------------------|
D|-888-6-6-666-4-4-888-6-6-666-4-xxxxxxx--| 
A|-888-6-6-666-4-4-888-6-6-666-4-xxxxxxx--|
E|-888-6-6-666-4-4-888-6-6-666-4-xxxxxxx--|
play this twice but instead of ending on the x's 
end on this

e|---------|
B|---------|
G|---------|
D|-4444444-| x4 (relatively fast) 
A|-4444444-|
E|-4444444-|

Verse
Guitar 2
1:03-1:18
e|----------------------|
B|----------------------|
G|----------------------|
D|----------------------| repeat till pre 
A|-44-66-44-66----------| chorus
E|----------------------|
pm .. .. .. ..

Pre-Chorus
Guitar 1
1:19-1:21
e|------------------------|
B|---7-6---7-6---7-6^-----|
G|------------------------|
D|-8-----8-----8----------| 
A|------------------------|
E|------------------------|

Chorus
Guitars 1 and 2
1:21-1:37
e|----------------------------------------|
B|----------------------------------------|
G|----------------------------------------|
D|-888-6-6-666-4-4-888-6-6-666-4-xxxxxxx--| x2
A|-888-6-6-666-4-4-888-6-6-666-4-xxxxxxx--|
E|-888-6-6-666-4-4-888-6-6-666-4-xxxxxxx--|


Bridge
guitar 2
1:38-2:04
e|------------------------------------------------|
B|------------------------------------------------|
G|------------------------------------------------|
D|-4-44444444-6-66666666-8-88888888-9-9999-4-4444-| repeat as needed
A|-4-44444444-6-66666666-8-88888888-9-9999-4-4444-|
E|-4-44444444-6-66666666-8-88888888-9-9999-4-4444-|
     ........   ........   ........   ....   ....
Then Guitar 1 comes in with something like this cant really make it out sorry
1:52-2:04
e|--------------|
B|---9-7-6--7-6-|
G|--------------|
D|-8-------8----| repeat as needed
A|--------------|
E|--------------|

2:05-2:10
Both Guitars
e|-----------------------|
B|-----------------------|
G|-----------------------|
D|-8~-6~-4~-8~-xxxxxxxx--| x1 
A|-8~-6~-4~-8~-xxxxxxxx--|
E|-8~-6~-4~-8~-xxxxxxxx--|

then 
2:11-2:32
e|----------------------------------|
B|----------------------------------|
G|-8888888-66666666-444444444444444-|
D|-8888888-66666666-444444444444444-| x3 
A|-8888888-66666666-444444444444444-|
E|----------------------------------|
on the last time palm mute all the fours

Chorus
2:33-
e|----------------------------------------|                                             
B|----------------------------------------|                                              
G|----------------------------------------|                                               
D|-888-6-6-666-4-4-888-6-6-666-4-xxxxxxx--| x4                                           
A|-888-6-6-666-4-4-888-6-6-666-4-xxxxxxx--|                                              
E|-888-6-6-666-4-4-888-6-6-666-4-xxxxxxx--|                                              

finish on 
|----|
|----|
|----|
|-4~-|
|-4~-|
|-4~-|
Composição de Not Documented
1.107 exibições
    • ½ Tom
    • A
    • Bb
    • B
    • C
    • Db
    • D
    • Eb
    • E
    • F
    • F#
    • G
    • Ab
  • Adicionar à lista

    0 comentários

    Ver todos os comentários

    Conseguiu tocar?

    0 Tocaram 0 Ainda não

    Grave um vídeo tocando We Sleep Forever e nos envie!

    00:00 / 00:00
    Outros vídeos desta música
    Repetir Qualidade Automático
    Outros vídeos desta música
    00:00 / 00:00
    Automático

    Cifra Club Pro

    Aproveite o Cifra Club com benefícios exclusivos e sem anúncios
    Cifra Club Pro
    Aproveite o Cifra Club com benefícios exclusivos e sem anúncios
    OK