Cifra Club

Aprenda

Be Mine

Alabama Shakes

Cifra: Principal (violão e guitarra)
tom: E
Intro: G#m  F#m  G#m  F#m  E  E

Intro:

  G#m                 F#m                    G#m              F#m
E|------------------------------------------------------------------------------|
B|--4----------------2----------------------4----------------2------------------|
G|--4-----4----4\2---2----2-----2---2---2---4----4----4\2----2------------------|
D|--4h6---4h6--4\2---2h4--2h4---2---2---4---4h6--4h6--4\2----2h4---2----4-------|
A|--------------------------------4----------------------------------4----------|
E|------------------------------------------------------------------------------|

   G#m                   F#m                      E
E|------4------------------------------------------4----------------------------|
B|-4----4---------------2--------------------------5------5---5-------5---5---5-|
G|-4----4----4----4\2---2----2------2---2----------4------4---4-------4h6-4---4-|
D|-4h6-------4h6--4\2---2h4--2h4----2h4-2h4------------4h6--6---6-4---------5---|
A|------------------------------------------4-2---------------------------------|
E|-----------------------------------------------0------------------0-----------|


        G#m                 F#m
All the world can't hold a candle to you 
               G#m             F#m
Cause' all the world is in the dark 
              G#m            F#m
I'll tell you why I'm so sure 
                        E
Ooh! I took a shine to you 

            G#m                       F#m
And all them ladies won't change your mind 
             G#m                   F#m
And all them girls won't turn your head 
             G#m                     F#m
And all them lions in the jungle at night 
                        E
I don't worry 'bout my baby 

      G#m        F#m
Cause I know why I don't worry 
G#m
  I sing me no sad songs 
F#m
 Happy! Never sad for long 
G#m                F#m        E
 Don't you call me anything  doll 
But your baby I know-oh-oh... 

         G#m   F#m
All them girls might wanna rip us apart 
              G#m     F#m
If they wanna fight  then they started fucking with the wrong heart 
G#m
They got another thing comin' 
F#m
Or I'll be a dead woman 
E
Oh  and I would do all that for you 
I'd do it for you.. 

               G#m      F#m
Cause all them girls... don't know you like I do 
         G#m            F#m
All them girls... don't know you like I do 
             G#m                  F#m
And all them ladies... they don't know you like I do 
                          E
That's why I call you my baby 

F#m   E  E5
So be mine 
F#m   E     E5
So be mine   
F#m   E     E5
So be mine   
         E5
So be my baby...    
Just say alright  
Forever and alright
Composição de Alabama Shakes
Colaboração e revisão:
  • Elvis Bellé
947 exibições
    • ½ Tom
    • A
    • Bb
    • B
    • C
    • Db
    • D
    • Eb
    • E
    • F
    • F#
    • G
    • Ab
  • Adicionar à lista

    0 comentários

    Ver todos os comentários

    Conseguiu tocar?

    0 Tocaram 0 Ainda não

    Grave um vídeo tocando Be Mine e nos envie!

    00:00 / 00:00
    Outros vídeos desta música
    Repetir Qualidade Automático
    Outros vídeos desta música
    00:00 / 00:00
    Automático

    Cifra Club Pro

    Aproveite o Cifra Club com benefícios exclusivos e sem anúncios
    Cifra Club Pro
    Aproveite o Cifra Club com benefícios exclusivos e sem anúncios
    OK