Cifra Club

Aprenda

Hold On

Alabama Shakes

Cifra: Principal (violão e guitarra)
tom: C
[Intro]

E|-----------------------------------------|
B|-----------------------------------------|
G|-----------------------------------------|
D|-----------------------------------------|
A|-------7--------3------------3--3-3------|
E|--3h5------3h5-----3h5--3--5---------5---|

C/G                       F
Bless my heart, bless my soul
C/G                                  F
Didn't think I'd make it to 22 years old
C/G                          F
There must be someone up above
C/G                                         F
Sayin' Come on Brittney, you got to come on up

[Refrão]

E|-------------------------------------------------------------------------|
B|-------------------------------------------------------------------------|
G|------------------------------------------------------------------10/12--|
D|--------10--------10------------10--------10------------10--------12/14--|
A|-10h12-----10h12-----10h2-10h2-----10h12-----10h2-10h2-----10h2----------|
E|-------------------------------------------------------------------------|

E|--------------------------------------------------------------------------------|
B|--------------------------------------------------------------------------------|
G|------------------------------------------------------------------10/12--10--9--|
D|--------10--------10------------10--------10------------10--------12/14--12--10-|
A|-10h12-----10h12-----10h2-10h2-----10h12-----10h2-10h2-----10h2-----------------|
E|--------------------------------------------------------------------------------|

E|-------------------------------------------------------------------------|
B|-------------------------------------------------------------------------|
G|------------------------------------------------------------------10/12--|
D|--------10--------10------------10--------10------------10--------12/14--|
A|-10h12-----10h12-----10h2-10h2-----10h12-----10h2-10h2-----10h2----------|
E|-------------------------------------------------------------------------|

E|-------------------------------------------------------------------------|
B|---------------------------13--13--12------------------------------------|
G|--------12-----------------14--14--12--12--------------------------------|
D|-12b14------12r14--10/12---------------14--------------------------------|
A|-------------------------------------------------------------------------|
E|-------------------------------------------------------------------------|

C/G                    F    C/G     
You've got to hold.......   on
F                  C/G      F     
Yeah you've got to hold   on

( C/G  F )

C/G                               F
So bless my heart and bless yours too
C/G
I don't know where I'm gonna go
                            F
Don't know what I'm gonna do
C/G                           F
Well, must be somebody up above
C/G                                              F
Sayin' come on Brittney, you've got to come on up

[Refrão]

C/G                    F    C/G     
You've got to hold.......   on
F                  C/G      F     
Yeah you've got to hold   on

[Ponte]

   C    F
E|--0----1--------3-------------------8---8---8--7-----------------------------|
B|--1----1----3b5----5rb3-----3b5----10--10--10--8-----------------------------|
G|--0----2-----------------5--5------------------------------------------------|
D|--2----3---------------------------------------------------------------------|
A|--3----3---------------------------------------------------------------------|
E|--0----1---------------------------------------------------------------------|

                     C/G     F
Yeah you've got to.. wait
              C/G     F
you've got to wait
                  C/G     F
But I don't wanna wait
            C/G     F
Don't wanna.. wait

C/G                          F
So bless my heart, bless my mind
C/G                                      F
I got so much to do, I aint got much time
C/G                          F
Well, must be somebody up above
C/G                                          F
Sayin' come on girl, you've got to get back up

[Refrão]

C/G                    F    C/G     
You've got to hold.......   on
F                  C/G      F     
Yeah you've got to hold   on

[Ponte]

                     C/G     F
Yeah you've got to.. wait
               C/G     F
you've got to wait
                  C/G     F
But I don't wanna wait
            C/G     F
Don't wanna wait

C/G                       F
You've got to hold…….. on  
C/G                       F
You've got to hold…….. on
Composição de Alabama Shakes
Colaboração e revisão:
18.462 exibições
    • ½ Tom
    • A
    • Bb
    • B
    • C
    • Db
    • D
    • Eb
    • E
    • F
    • F#
    • G
    • Ab
  • Adicionar à lista

    0 comentários

    Ver todos os comentários

    Conseguiu tocar?

    5 Tocaram 0 Ainda não

    Grave um vídeo tocando Hold On e nos envie!

    00:00 / 00:00
    Outros vídeos desta música
    Repetir Qualidade Automático
    Outros vídeos desta música
    00:00 / 00:00
    Automático

    Cifra Club Pro

    Aproveite o Cifra Club com benefícios exclusivos e sem anúncios
    Cifra Club Pro
    Aproveite o Cifra Club com benefícios exclusivos e sem anúncios
    OK