Cifra Club

I'll Try

Alan Jackson

Cifra: Principal (violão e guitarra)
Tom: F#
(intro 2x)  F# C# B C#

E|------------------------------------------------------
B|------------------------------------------------------
G|-------------1-1h3-1~--------4-3-1-1h3p1--------------
D|-----------4---------------4-------------4------------
A|-2-1-----4---------------4---------------------4------
E|-----4-2-----------------------------------4-6--------


E|-----------------------------------------------
B|-------------------------------2/4/2~----------
G|---1-1h3-1----4-3-1h3p1---1--------------------
D|-4----------------------4----------------------
A|-----------------------------------------------
E|-----------------------------------------------

F#         C# B C#                F#    C#  B  C#
Here we are,  talking about forever,
F#           C#       B         C#       F#     C#   B  C#
Both know damn well, it's not easy together.
B                     C#
We've both felt love, we've both felt pain.
B                      C#
I'll take the sunshine over the rain.

(refrão)
         F#   C# B C#            F#     C#  B  C#
And I'll try,      to love only you.
F#         C#  B C#              F#     C#  B
 And I'll try    my best to be true.
    C#       F#        C#  B  C#  F#  C#  B  C#
Oh darling, I'll try.

F#       C#         B     C#              F#     C#  B  C#
So I'm not scared, it's worth a chance to me.
F#      C#     B       C#    F#       C#  B  C#
Take my hand  let's face eternity.
B                      C#
Well, I can't tell you that I'll never change.
B                C#
But I can swear that in every way.

(refrão)

B                C#
I'm not perfect, just another man,
B                   C#
But I will give you all that I am.

(refrão)

         F#  C# B    C#         F#     C#  B
And I'll try,   to love only you.
C#         F#  C# B    C#          F#     C#  B
 And I'll try    my best to be true.
    C#       F#        C#  B  C#
Oh darling, I'll try.

     F#  C# B      C#                 F#  C# B F#
I'll try   to be true to you. I'll try,
    F#   C# B          C#
I'll try   to always love you
   F#     C#  B  C#  F#
I'll try.
exibições 117.923
Acordes para:
    Composição: Alan Jackson Colaboração e revisão:

    0 comentários

    mostrar mais comentários

    Conseguiu tocar?

    13 tocaram 5 ainda não

    Grave um vídeo tocando I'll Try e mande pra gente!

    00:00 / 00:00
    outros vídeos desta música
    repetir qualidade Automático
    Outros vídeos desta música
    00:00 / 00:00
    Automático
    OK