Cifra Club

Aprenda

Its Five Oclock Somewhere

Alan Jackson

Cifra: Principal (violão e guitarra)
tom: Eb (forma dos acordes no tom de C) Capotraste na 3ª casa
[Intro] C  F  G  C

[Solo sem Capo]

Afinação: D A D G B E  

E|----------------------------------------------------|
B|----------------------------------------------------|
G|----------------------------------0----------/6-6-6-|
D|-0---------2/4-4--2/4-2-0---0---0-4h5r4------/7-7-7-|
A|---2-0----------------------0h2------------0--------|
E|-------0--------------------------------------------|

E|-----------2----------------------------------------|
B|-----------3----------------------------------------|
G|-/4-4-4-2--2----------------------------------------|
D|-/5-5-5-4--4--------------0-------------------------|
A|-----------5----------------2b3b2-0-----------------|
E|------------------------------------3b4r3-0~--------|

Afinação: C A D G B E  

[Primeira Parte]

  C                 
The sun is hot and 
  G                C              G       
That old clock is movin slow and so am I
 C              G              
Workday passes like molassas 
    Am            G        C
In wintertime but it's July

F                                C
I'm getting paid by the hour and over by the minute
G                      C
My boss just pushed me over the limit
F
I'd like to call him something
C                            G
I think I'll just call it a day

[Refrão]

 C                 F
Pour me something tall and strong
           G               C
Make it a hurricane before I go insane
C                   F               G
It's only half past 12 but I don't care
                   C      
It's five o'clock somewhere

[Solo] C  F  G  C

[Solo sem Capo]

Afinação: D A D G B E  

E|----------------------------------------------------|
B|----------------------------------------------------|
G|----------------------------------0----------/6-6-6-|
D|-0---------2/4-4--2/4-2-0---0---0-4h5r4------/7-7-7-|
A|---2-0----------------------0h2------------0--------|
E|-------0--------------------------------------------|

E|-----------2----------------------------------------|
B|-----------3----------------------------------------|
G|-/4-4-4-2--2----------------------------------------|
D|-/5-5-5-4--4--------------0-------------------------|
A|-----------5----------------2b3b2-0-----------------|
E|------------------------------------3b4r3-0~--------|

[Segunda Parte]

  C                  G                   C       
This lunch break is gonna take all afternoon 
     G            
And half the night
   C                 G               Am         
Tomorrow mornin' I know there'll be hell to pay 
           G            C
But baby that's alright

F                          C
Ain't had a day off now in over a year
      G                       C
My Jamacan vacation's gonna start right here
         F                      C                      G
If the phone's for me  you can tell em I just sailed away

[Refrão]

 C                 F
Pour me something tall and strong
           G               C
Make it a hurricane before I go insane
C                   F               G
It's only half past 12 but I don't care
                   C      
It's five o'clock somewhere

[Solo] C  F  G  C

       Am
I can pay off my tab
        F 
Pour myself in a cab
        G                    C
And be back to work before two

      Am
At a momment like this
   F 
I can't help but wonder
  Dm                     G
What would Jimmy Buffet do?

[Refrão]

 C                 F
Pour me something tall and strong
           G               C
Make it a hurricane before I go insane
C                   F               G
It's only half past 12 but I don't care
                   C      
It's five o'clock somewhere

 C                 F
Pour me something tall and strong
           G               C
Make it a hurricane before I go insane
C                   F               G
It's only half past 12 but I don't care
                   C      
It's five o'clock somewhere

[Final] C  F  G  C
Composição de Don Rollins / Jim Moose Brown
Colaboração e revisão:
  • Getúlio Vasconcelos
  • Pedro Fernandes
  • Élison Duarte
3.582 exibições
    • ½ Tom
    • A
    • Bb
    • B
    • C
    • Db
    • D
    • Eb
    • E
    • F
    • F#
    • G
    • Ab
  • Adicionar à lista

    0 comentários

    Ver todos os comentários

    Conseguiu tocar?

    1 Tocaram 0 Ainda não

    Grave um vídeo tocando Its Five Oclock Somewhere e nos envie!

    00:00 / 00:00
    outros vídeos desta música
    repetir qualidade Automático
    Outros vídeos desta música
    00:00 / 00:00
    Automático

    Cifra Club Pro

    Aproveite o Cifra Club com benefícios exclusivos e sem anúncios
    Cifra Club Pro
    Aproveite o Cifra Club com benefícios exclusivos e sem anúncios
    OK