Notificações Amigos pendentes

      Alan Jackson

      Remember when

      60.585 exibições
      Tom: G
      Intro: G  Em7  C9  D
      
      
      E|----------------15-14-15-------------0----12---14--------------------------|
      B|------10/12----------------12----------------------------------------------|
      G|------------------------------12-------------------------------------------|
      D|---------------------------------14----------------------------------------|
      A|---------------------------------------------------------------------------|
      E|---------------------------------------------------------------------------|
      
      
      E|-----14/15---15-15-14-12--------15-14-15-----------------------------------|
      B|-------------------------15-15---------------------------------------------|
      G|---------------------------------------------------------------------------|
      D|---------------------------------------------------------------------------|
      A|---------------------------------------------------------------------------|
      E|---------------------------------------------------------------------------|
      
      
      E|--------------------15-15-14h15-15-14-12-----------------------------------|
      B|-----12----------------------------------15-12-13---12h13p12---------------|
      G|--------12------------------------------------------------------12---------|
      D|-----------12-14-----------------------------------------------------------|
      A|---------------------------------------------------------------------------|
      E|---------------------------------------------------------------------------|
      
      
      Verso 1:
               G   Em7      C9           D
      Remeber when,   I was young, so were you,
             G        Em7      C9           D
      Time stood still,   and love was all we knew,
                    G           Em7
      You were the first, so was I,
              C9              D
      We made love and then you cried,
                G  Em7  C  Dsus  D
      Remember when,
      
      Verso 2:
                G   Em7       C9              D
      Remember when,   writin vows and walk the walk,
                  G   Em7          C9             D
      Gave our hearts,    made the start and it was hard,
                    G                   Em7
      We lived and learned, life threw curves,
               C9               D
      There was joy and there was hurt,
                G  Em7  C  Dsus  D
      Remember when,
      
      Verso 3:
                G   Em7        C9              D
      Remember when,   old ones die and new were born,
                  G    Em7     C9           D
      Life was changed,   dissassemble, rearranged,
                    G         Em7
      We came together, fell apart,
         C9               D
      We broke each others hearts,
                G  C9  G  Em7/A  Dsus4/B
      Remember when,
      
      ( C  Am7  F  G  C  Am7  F  G )
      
      ( C  C/B  Am7  Am7/G  F  G  C  Esus  E )
      
      Verso 4:
                A   F#m       D              E
      Remember when,    the sound of little feet,
                A   F#m       D                 E
      Was our music,    we danced from week to week,
                        A              F#m
      Brought back the love, we found trust,
                  D            E
      Vowed we'd never give it up,
                 A  F#m  D  E
      Remember when,
      
      Verso 5:
                A   F#m    D              E
      Remember when,    thirty seemed so old,
                   A   F#m        D              E
      Now looking back,    it's just a steppin stone,
                   A               F#m
      To where we are, where we've been,
                D            E
      Said we'd do it all again,
                 A  F#m  D  E
      Remember when,
      
      Verso 6:
                A   F#m     D                   E
      Remember when,    we said when we'd turn grey,
                  A    F#m    D               E
      When the children,    grow up and move away,
                   A            F#m
      We won't be sad, we'll be glad,
           D                  E
      For all the life we've had,
                           A  F#m  D  E
      And we'll remember when,
                 A  F#m  D  E
      Remember when,
                A
      Remember when,

      Comentários 4

      140 .
      140 cancelar

      conseguiu tocar?

      • •••

      covers

      Grave um vídeo tocando Remember when e mande pra gente!

      Ex.: http://www.youtube.com/watch?v=0IvSvIwGdwk
      ver covers de outras músicas »
      0:00 / 0:00

      Capítulos

        1 versão de baixo exibições contribuição e correção
        play/pausefechar subir/descer velocidade
        6ª corda E5ª corda A4ª corda D3ª corda G2ª corda B1ª corda E
          acordes
          publicidade
          fechar
          ok