Cifra Club

Faded

Alan Walker

Cifra: Principal (violão e guitarra)
exibições 210.943
Tom: D#m
[Intro] D#m  B  F#  C#

E|-------------6--11---11---11---9--6---6---6---6------------------------| 
B|-7---7---7------------------------------------------6---6---6----------| 
G|-8---8---8--------------------------6---6---6---6----------------8-----| 
D|---8---8---8------------------------------------------6---6---6--------| 
A|-6-----------------9----9----9----9---9---9---9------------------------| 
E|----------------7----7----7-------------------------9---9---9----------| 

[Solo] 

E|-------8-13-13-13-11-8-8-8-8---------------8-13-13-13-11-8-8-8-8--------| 
B|-9-9-9-----------------------8-8-8-6-9-9-9-----------------------8-8-8--| 
G|------------------------------------------------------------------------| 
D|------------------------------------------------------------------------| 
A|------------------------------------------------------------------------| 
E|------------------------------------------------------------------------| 

D#m                              B
 You were the shadow to my light
               F#
Did you feel us
        C#
Another Start
              D#m
You fade away

                            B
Afraid our aim is out of sight
            F#
Wanna see us
  C#
Alive

              D#m    B
Where are you now
              F#        C#
Where are you now
              D#m
Where are you now
                 B
Was it all in my fantasy
              F#
Where are you now
               C#
Were you only imaginary
 
              D#m
Where are you now
   B
Atlantis
          F#
Under the sea
          C#
Under the sea
              D#m
Where are you now
        B
Another dream
      F#                               C#
The monsters running wild inside of me
              D#m     B
I'm faded
              F#
I'm faded
     C#                  D#m     B
So lost, I'm faded
             F#
I'm faded
     C#
So lost, I'm faded

D#m                       B
These shallow waters, never met
                     F#
What i needed
             C#
I'm letting go
      D#m
A deeper dive
                       B
Eternal silence of the sea
             F#
I'm breathing
  C#
Alive

              D#m       B
Where are you now
              F#       C#
Where are you now

          D#m
Under the bright
           B
But faded lights
           F#            C#
You set my heart on fire
               D#m
Where are you now
              B
Where are you now

             D#m
Where are you now
   B
Atlantis
          F#
Under the sea
          C#
Under the sea
               D#m
Where are you now
        B
Another dream
    F#                           C#
The monsters running wild inside of me
              D#m    B
I'm faded
              F#
I'm faded
     C#                 D#m     B
So lost, I'm faded
             F#
I'm faded
     C#
So lost, I'm faded

0 comentários

mostrar mais comentários

Conseguiu tocar?

42 tocaram 14 ainda não

Grave um vídeo tocando Faded e mande pra gente!

00:00 / 00:00
outros vídeos desta música
repetir qualidade Automático
Outro vídeos desta música
00:00 / 00:00
Automático
OK