Cifra Club

Faded

Alan Walker

Cifra: Principal (violão e guitarra)
exibições 227.792
Tom: Ebm
[Intro] D#m  B  F#  C#

   D#m              B
E|-------------6----11---11---11---9--------|
B|-7---7---7--------------------------------|
G|-8---8---8--------------------------------|
D|---8---8---8---8--------------------------|
A|-6-------6-----------9----9----9---9------|
E|------------------7---------7-------------|

   F#               C#
E|-6---6---6---6----------------------------|
B|------------------6---6---6---------------|
G|---6---6---6---6--------------8-----------|
D|--------------------6---6---6---6---------|
A|-9-------9--------------------------------|
E|------------------9-------9---------------|

[Primeira Parte]

D#m                            B
    You were the shadow to my light
                F#
Did you feel us
          C#
Another start

You fade away

D#m                           B
    Afraid our aim is out of sight
             F#
Wanna see us
  C#
Alive

[Pré-Refrão]

[Riff 1]

E|-------6--11-11-11-9--6-6-6-6-------------|
B|-7-7-7------------------------6-6-6-------|
G|------------------------------------8-----|
D|------------------------------------------|
A|------------------------------------------|
E|------------------------------------------|

               D#m  B
Where are you now
               F#  C#
Where are you now
               D#m
Where are you now
                  B
Was it all in my fantasy
               F#
Where are you now
                C#
Were you only imaginary

[Refrão]

[Riff 2]

E|--------------6-6--11-11-11-11-11-11-9-9--|
B|-7-7-7-7-7-7------------------------------|
G|------------------------------------------|
D|------------------------------------------|
A|------------------------------------------|
E|------------------------------------------|

E|-6-6-6-6-6-6-6-6--------------------------|
B|------------------6-6-6-6-6-6-------------|
G|-------------------------------8-8--------|
D|------------------------------------------|
A|------------------------------------------|
E|------------------------------------------|

               D#m
Where are you now
   B
Atlantis
           F#
Under the sea
           C#
Under the sea
               D#m
Where are you now
          B
Another dream
     F#                              C#
The monsters running wild inside of me

[Solo]

E|-------------------14-13-11-11-11-9-9-9---|
B|-------------11-11------------------------|
G|-11-11-11-11------------------------------|
D|------------------------------------------|
A|------------------------------------------|
E|------------------------------------------|

E|------------------------------------------|
B|-9-9-11-11-11-11--14-12-11-9--------------|
G|-----------------------------10-10-10-10--|
D|------------------------------------------|
A|------------------------------------------|
E|------------------------------------------|

E|------------------------------------------|
B|------------------------------------------|
G|-10-8-10-11-------------------------------|
D|------------------------------------------|
A|------------------------------------------|
E|------------------------------------------|

       D#m  B
I'm faded
       F#
I'm faded
    C#          D#m  B
So lost, I'm faded
       F#
I'm faded
    C#
So lost, I'm faded

[Segunda Parte]

D#m                              B
    These shallow waters, never met
           F#
What I needed
             C#
I'm letting go
       
A deeper dive
D#m                         B
    Eternal silence of the sea
          F#
I'm breathing
  C#
Alive

[Pré-Refrão]

               D#m  B
Where are you now
               F#  C#
Where are you now
           D#m
Under the bright
           
But faded lights
            B
You set my heart on fire
               F#
Where are you now
               C#
Where are you now

[Refrão]

               D#m
Where are you now
   B
Atlantis
           F#
Under the sea
           C#
Under the sea
               D#m
Where are you now
          B
Another dream
     F#                              C#
The monsters running wild inside of me

[Solo]

E|-------------------14-13-11-11-11-9-9-9---|
B|-------------11-11------------------------|
G|-11-11-11-11------------------------------|
D|------------------------------------------|
A|------------------------------------------|
E|------------------------------------------|

E|------------------------------------------|
B|-9-9-11-11-11-11--14-12-11-9--------------|
G|-----------------------------10-10-10-10--|
D|------------------------------------------|
A|------------------------------------------|
E|------------------------------------------|

E|------------------------------------------|
B|------------------------------------------|
G|-10-8-10-11-------------------------------|
D|------------------------------------------|
A|------------------------------------------|
E|------------------------------------------|

       D#m  B
I'm faded
       F#
I'm faded
    C#          D#m  B
So lost, I'm faded
       F#
I'm faded
    C#
So lost, I'm faded

[Final] D#m  B  F#  C#

   D#m              B
E|-------------6----11---11---11---9--------|
B|-7---7---7--------------------------------|
G|-8---8---8--------------------------------|
D|---8---8---8---8--------------------------|
A|-6-------6-----------9----9----9---9------|
E|------------------7---------7-------------|

   F#               C#
E|-6---6---6---6----------------------------|
B|------------------6---6-------------------|
G|---6---6---6---6--------------------------|
D|--------------------6---------------------|
A|-9-------9--------------------------------|
E|------------------9-----------------------|

0 comentários

mostrar mais comentários

Conseguiu tocar?

50 tocaram 17 ainda não

Grave um vídeo tocando Faded e mande pra gente!

00:00 / 00:00
outros vídeos desta música
repetir qualidade Automático
Outros vídeos desta música
00:00 / 00:00
Automático
OK