Cifra Club

Scared

Albert Hammond Jr.

Cifra: Principal (violão e guitarra)
tom: G
Made by: Akonite
Ng-Muk-Yuen

Verse-Medium Palm Mute
e|-----------------------------------------------------------------------|
B|-7777777777777777--4444444444444444--444444444444444--4444444466666666-|
G|-7777777777777777--4444444444444444--444444444444444--4444444466666666-|
D|-7777777777777777--4444444444444444--444444444444444--4444444466666666-|
A|-5555555555555555--2222222222222222--222222222222222--2222222244444444-|
E|-----------------------------------------------------------------------|x3

Chorus
e|-2-2--3-3-------2-2-|
B|-3-3--3-3--7-7--2-2-|
G|-4-4--4-4--7-7--3-3-|
D|-4-4--5-5--7-7--4-4-|
A|-2-2--3-3--5-5--4-4-|
E|-2-2--3-3--5-5--2-2-|x3

Verse-Medium Palm Mute
e|-----------------------------------------------------------------------|
B|-7777777777777777--4444444444444444--444444444444444--4444444466666666-|
G|-7777777777777777--4444444444444444--444444444444444--4444444466666666-|
D|-7777777777777777--4444444444444444--444444444444444--4444444466666666-|
A|-5555555555555555--2222222222222222--222222222222222--2222222244444444-|
E|-----------------------------------------------------------------------|x2

Chorus
e|-2-2--3-3-------2-2-|
B|-3-3--3-3--7-7--2-2-|
G|-4-4--4-4--7-7--3-3-|
D|-4-4--5-5--7-7--4-4-|
A|-2-2--3-3--5-5--4-4-|
E|-2-2--3-3--5-5--2-2-|x3

Refrain
e|----------------------------------------------------|
B|----------------------------------------------12-10-|
G|---4-6-7-9-11-12-14-11----4-6-7-9-11-12-14-11-------|
D|4-5--------------------4-5--------------------------|
A|----------------------------------------------------|
E|----------------------------------------------------|

e|----------------------------------------------|
B|----------------------------------------------|
G|---4-6-7-9-11-12-14-11----4-6-7-9-11-12-14-11-|
D|4-5--------------------4-5--------------------|
A|----------------------------------------------|
E|----------------------------------------------|

e|3-3-3-3-3-3-3-3-3-3-3-3-3-3-3-3--2-2-2-2-2-2-2-2-2-2-|
B|3-3-3-3-3-3-3-3-3-3-3-3-3-3-3-3--3-3-3-3-3-3-3-3-3-3-|
G|2-2-2-2-2-2-2-2-2-2-2-2-2-2-2-2--3-3-3-3-3-3-3-3-3-3-|
D|-----------------------------------------------------|
A|-----------------------------------------------------|
E|-----------------------------------------------------|x4

Chorus
e|-2-2--3-3-------2-2-|
B|-3-3--3-3--7-7--2-2-|
G|-4-4--4-4--7-7--3-3-|
D|-4-4--5-5--7-7--4-4-|
A|-2-2--3-3--5-5--4-4-|
E|-2-2--3-3--5-5--2-2-|x6

e|-2-2--3-3-------2222222222222222-|
B|-3-3--3-3--7-7--2222222222222222-|
G|-4-4--4-4--7-7--3333333333333333-|
D|-4-4--5-5--7-7--4444444444444444-|
A|-2-2--3-3--5-5--4444444444444444-|
E|-2-2--3-3--5-5--2222222222222222-|
00:00 / 00:00
Outros vídeos desta música
Repetir
Outros vídeos desta música
Composição de Albert Hammond, Jr. / Greg Lattimer
2.019 exibições
    • ½ Tom
    • A
    • Bb
    • B
    • C
    • Db
    • D
    • Eb
    • E
    • F
    • F#
    • G
    • Ab
  • Adicionar à lista

    0 comentários

    Ver todos os comentários

    Conseguiu tocar?

    0 Tocaram 0 Ainda não

    Grave um vídeo tocando Scared e nos envie!

    Entre para oCifra Club PRO

    Tenha acesso a benefícios exclusivos no App e no Site

    • Chega de anúncios

    • Prioridade de compra em lançamentos

    • Mais recursos no app do Afinador

    • Atendimento Prioritário

    • Descontos nos produtos Cifra Club

    • Ajude a produzir mais conteúdo

    00:00 / 00:00

    Cifra Club Pro

    Aproveite o Cifra Club com benefícios exclusivos e sem anúncios
    Cifra Club Pro
    Aproveite o Cifra Club com benefícios exclusivos e sem anúncios
    OK