Cifra Club

Spooky Couch

Albert Hammond Jr.

Cifra: Principal (violão e guitarra)
tom: G
e|---------------------------------------------------------------------------------|
B|------------7-7--5-5-----------7-7-5-5-------------------------------------------|
G|--------4-4----------------4-4---------------------------------------------------|
D|----5-5----------------5-5-------------------------------------------------------|
A|---------------------------------------------------------------------------------|
E|---------------------------------------------------------------------------------|

e|-------------------------------------------------------------------------------------|
B|------------8-8-7-7--------------8-8-7-7---------------------------------------------|
G|-------5-5------------------5-5------------------------------------------------------|
D|---7-7------------------7-7----------------------------------------------------------|
A|-------------------------------------------------------------------------------------|
E|-------------------------------------------------------------------------------------|

e|----------------------------------------------|
B|------------10-10-8-8--------------10-10-8-8--|
G|--------7-7-------------------7-7-------------|
D|----9-9-------------------9-9-----------------|
A|----------------------------------------------|
E|----------------------------------------------|

e|------------------------------------------------------|
B|---------------12-12-10-10---------------12-12-10-10--|
G|----------9-9-----------------------9-9---------------|
D|----10-10--------------------10-10--------------------|
A|------------------------------------------------------|
E|------------------------------------------------------|

entao em 0:36 a guitarra 2 toca isso quando a guitarra 1 toca o riff acima
e|----5------7----7------------5----7----7---------------------------------------------|
B|----5------7----7------------5----7----7---------------------------------------------|
G|----5------7----8------------5----7----8---------------x2----------------------------|
D|----5------7----9---9--------5----7----9---------------------------------------------|
A|----3------5----9---7--------3----5----9---------------------------------------------|
E|----------------7----------------------7---------------------------------------------|

00:00 / 00:00
Outros vídeos desta música
Repetir
Outros vídeos desta música
Composição de Albert Hammond, Jr.
Colaboração e revisão:
  • Rafael Neves
411 exibições
    • ½ Tom
    • A
    • Bb
    • B
    • C
    • Db
    • D
    • Eb
    • E
    • F
    • F#
    • G
    • Ab
  • Adicionar à lista

    0 comentários

    Ver todos os comentários

    Conseguiu tocar?

    0 Tocaram 0 Ainda não

    Grave um vídeo tocando Spooky Couch e nos envie!

    Entre para oCifra Club PRO

    Tenha acesso a benefícios exclusivos no App e no Site

    • Chega de anúncios

    • Prioridade de compra em lançamentos

    • Mais recursos no app do Afinador

    • Atendimento Prioritário

    • Descontos nos produtos Cifra Club

    • Ajude a produzir mais conteúdo

    00:00 / 00:00

    Cifra Club Pro

    Aproveite o Cifra Club com benefícios exclusivos e sem anúncios
    Cifra Club Pro
    Aproveite o Cifra Club com benefícios exclusivos e sem anúncios
    OK