Cifra Club

Dia Branco

Alceu Valença

Cifra: Principal (violão e guitarra)
tom: B
[Intro] F#  G#  F#
        F#  G#  F#

E|-9-11-12-14-12h14p12-11-12-11h12p11--9----|
B|------------------------------------------|
G|------------------------------------------|
D|------------------------------------------|
A|------------------------------------------|
E|------------------------------------------|

E|-11-9h11p9----9------------------9-8------|
B|-----------12---11h12p11-11---11-----9-11-|
G|----------------------------11------------|
D|------------------------------------------|
A|------------------------------------------|
E|------------------------------------------|

E|-9-11-12-14-12h14p12-11-12-11h12p11--9----|
B|------------------------------------------|
G|------------------------------------------|
D|------------------------------------------|
A|------------------------------------------|
E|------------------------------------------|

E|-11-9h11p9----9------------------9-8------|
B|-----------12---11h12p11-11---11-----9----|
G|----------------------------11---------11-|
D|------------------------------------------|
A|------------------------------------------|
E|------------------------------------------|

[Primeira Parte]

          F#
Deusa da noite

Sangrenta e fria
         E
Irmã da lua
           C#         F#
Mulher da noite e do dia

Eu vim de longe

Atrás de brisa
          E
Com sete pedras
          C#      F#
Bordei a minha camisa

[Refrão]

           B              F# 
Pra ver a doida das lantejoulas
            B              F#
Dos lábios verdes de purpurina
           B                F#
Dançar na noite nos quatro cantos
            B            F#
Com seu vestido de bailarina
         B              F#
Fazer o riso, tremer o medo
         B              F#
Fazer o medo, virar sorriso
          B7                F#
Fazer da noite  dos quatro cantos
         B     C#      F#
Um dia branco feito domingo

[Solo] F#  G#  F#
       F#  G#  F#

[Primeira Parte]

          F#
Deusa da noite

Sangrenta e fria
         E
Irmã da lua
           C#         F#
Mulher da noite e do dia

Eu vim de longe

Atrás de brisa
          E
Com sete pedras
          C#      F#
Bordei a minha camisa

[Refrão]

           B              F# 
Pra ver a doida das lantejoulas
            B              F#
Dos lábios verdes de purpurina
           B                F#
Dançar na noite nos quatro cantos
            B            F#
Com seu vestido de bailarina
         B              F#
Fazer o riso, tremer o medo
         B              F#
Fazer o medo, virar sorriso
          B7                F#
Fazer da noite  dos quatro cantos
         B     C#      F#
Um dia branco feito domingo

[Solo] F#  G#  F#
       F#  G#  F#
       F#  G#  F#
       F#  G#  F#

[Refrão]

           B              F# 
Pra ver a doida das lantejoulas
            B              F#
Dos lábios verdes de purpurina
           B                F#
Dançar na noite nos quatro cantos
            B            F#
Com seu vestido de bailarina
         B              F#
Fazer o riso, tremer o medo
         B              F#
Fazer o medo, virar sorriso
          B7                F#
Fazer da noite  dos quatro cantos
         B     C#      F#7(11)
Um dia branco feito domingo
00:00 / 00:00
Outros vídeos desta música
Repetir
Outros vídeos desta música
Compositor não encontrado.
Colaboração e revisão:
  • Gustavo Vaz
  • André Pessoa
85.346 exibições
    • ½ Tom
    • A
    • Bb
    • B
    • C
    • Db
    • D
    • Eb
    • E
    • F
    • F#
    • G
    • Ab
  • Adicionar à lista

    0 comentários

    Ver todos os comentários

    Conseguiu tocar?

    1 Tocaram 0 Ainda não

    Grave um vídeo tocando Dia Branco e nos envie!

    00:00 / 00:00

    Cifra Club Pro

    Aproveite o Cifra Club com benefícios exclusivos e sem anúncios
    Cifra Club Pro
    Aproveite o Cifra Club com benefícios exclusivos e sem anúncios
    OK