Enviar cifraEntrar

Girassol

Alceu Valença

Cifra: Principal
exibições 302.479
Tom: C
(intro) ( C Em )


E|-------------------|-----------------------|
B|--------------7/9--|-----------9-7---------|
G|--10p9(7X)--9------|--10p9(7X)-----10-8/9--|
D|-------------------|-----------------------|
A|-------------------|-----------------------|
E|-------------------|-----------------------|


 C     Em
Mar e Sol
 C
Gira, gira, gira
                              Em
Gira, gira, gira, gira, girassol             (2x)

C                    Em
 Um girassol nos teus cabelos
C                      Em
 Batom vermelho, girassol
  Am              Em
Morena flor do desejo
 F       G               C
Há teu cheiro em meu lençol           (2x)

( C Em )


E|-------------------|-----------------------|
B|--------------7/9--|-----------9-7---------|
G|--10p9(7X)--9------|--10p9(7X)-----10-8/9--|
D|-------------------|-----------------------|
A|-------------------|-----------------------|
E|-------------------|-----------------------|


C                    Em
 Um girassol nos teus cabelos
C                      Em
 Batom vermelho, girassol
  Am              Em
Morena flor do desejo
 F       G               C
Há teu cheiro em meu lençol   


 Am             Em
Desço pra rua, sinto saudade
 Am             Em
Gata selvagem, sou caçador
 F                Em
Morena flor do desejo
F          G        C
Ah! Teu cheiro matador!

( C Em )


E|-------------------|-----------------------|
B|--------------7/9--|-----------9-7---------|
G|--10p9(7X)--9------|--10p9(7X)-----10-8/9--|
D|-------------------|-----------------------|
A|-------------------|-----------------------|
E|-------------------|-----------------------|


Solo


E|--------------11/12--|---------------------|
B|--13-13-13-15--------|--12-12-12-13-13/15--|
G|---------------------|---------------------|
D|---------------------|---------------------|
A|---------------------|---------------------|
E|---------------------|---------------------|


E|------------------------------|
B|--12b13r12-10-----------------|
G|--------------12-9------------|
D|-------------------12-10-8/9--|
A|------------------------------|
E|------------------------------|


E|---------------------|--------------------|
B|---------------------|--------------------|
G|---------------------|--------------------|
D|-----10-12-10-12/14--|-12-10-9-------8/9--|
A|--12-----------------|---------10-7-------|
E|---------------------|--------------------|


E|----------------------------|
B|----------------------------|
G|--9/10-9-7------------------|
D|-----------9/10-7--9/10-10--|
A|----------------------------|
E|----------------------------|




(repete 2ª parte)


E|-------------------|-----------------------|
B|--------------7/9--|-----------9-7---------|
G|--10p9(7X)--9------|--10p9(7X)-----10-8/9--|
D|-------------------|-----------------------|
A|-------------------|-----------------------|
E|-------------------|-----------------------|


 Am             Em
Desço pra rua, sinto saudade
 Am             Em
Gata selvagem, sou caçador
 F                Em
Morena flor do desejo
F          G        C
Ah! Teu cheiro matador!


E|-------------------|-----------------------|
B|--------------7/9--|-----------9-7---------|
G|--10p9(7X)--9------|--10p9(7X)-----10-8/9--|
D|-------------------|-----------------------|
A|-------------------|-----------------------|
E|-------------------|-----------------------|



 C     Em
Mar e Sol
 C
Gira, gira, gira
                              Em
Gira, gira, gira, gira, girassol
  • 1
  • 2
  • 3
  • 4
  • 5
  • 6
  • 7
  • 8
  • 9
  • 10
  • 11
  • 12
    Acordes para:
      Colaboração e revisão:
      • Gilson Feitosa

      0 comentários

        mostrar mais comentários

        Conseguiu tocar?

        22tocaram0ainda não

        Grave um vídeo tocando Girassol e mande pra gente!

        00:00 / 00:00
        outros vídeos desta música
        repetirqualidadeautomática
        • automática
        Outro vídeos desta música
          00:00 / 00:00
          automática
          • automática
          Acordes para:violão e guitarra
          dificuldadeexibiçõescontribuições
          1 versão de Guitar Proformatodownloadscontribuição
          fecharplay/pause subir/descer velocidade
            Acordes para:violão e guitarra
            acordes
            fechar
            OK