Cifra Club

Sete Desejos

Alceu Valença

Cifra: Principal (violão e guitarra)
Selo Cifra Club: esta cifra foi revisada para atender aos critérios oficiais da nossa Equipe de Qualidade.
tom: D
[Intro] D  C#4  D  C#4
        D  C#4  D  C#4
        D  C#4  C  B4  
        Bb  A4  G  A  
        D  C#4  C  B4  
        Bb  A4  G  A  

[Dedilhado]

   D             C#4
E|-------0-------------0--------------------|
B|----10---10-------10---10-----------------|
G|------------------------------------------|
D|-12---------0--11---------0---------------|
A|------------------------------------------|
E|------------------------------------------|

   D             C#4
E|-------0-------------0--------------------|
B|----10---10-------10---10-----------------|
G|------------------------------------------|
D|-12---------0--11---------0---------------|
A|------------------------------------------|
E|------------------------------------------|

   D             C#4
E|-------0-------------0--------------------|
B|----10---10-------10---10-----------------|
G|------------------------------------------|
D|-12---------0--11---------0---------------|
A|------------------------------------------|
E|------------------------------------------|

   C           B4
E|------0----------0------------------------|
B|----8---8------8---8----------------------|
G|------------------------------------------|
D|-10-------0--9-------0--------------------|
A|------------------------------------------|
E|------------------------------------------|

   Bb         A4         G  A
E|-----0----------0-------------------------|
B|---6---6------6---6----3--5---------------|
G|-----------------------4--6---------------|
D|-8-------0--7-------0--5--7---------------|
A|------------------------------------------|
E|------------------------------------------|

[Solo]

E|-10-10h12p10-9--9h10p9-8--8h10p8-7--------|
B|------------------------------------------|
G|------------------------------------------|
D|------------------------------------------|
A|------------------------------------------|
E|------------------------------------------|

E|-7h8p7-6--6h8p6-5--3/5--5/10--------------|
B|-------------------3/5--5/10--------------|
G|------------------------------------------|
D|------------------------------------------|
A|------------------------------------------|
E|------------------------------------------|

E|-10-9-8-7--7h8p7-6--6h8p6-5--3/5--5/10----|
B|-----------------------------3/5--5/10----|
G|------------------------------------------|
D|------------------------------------------|
A|------------------------------------------|
E|------------------------------------------|

[Primeira Parte]

   D             C#4
Recomeçando das cinzas
    C                B4
Eu faço versos tão claros
    Bb          A4
Projeto sete desejos
      G    A    D
Na fumaça do cigarro
               C#4            C
Eu lembro na blusa branca de renda
            B4
Que dei pra ela
    Bb           A4
Na curva de suas ancas
  G           A       D   C#4 
Quando escanchada na sela

( D  C#4  D  C#4  D  C#4 )

[Segunda Parte]

            D            C#4
Lembro um flamboyant vermelho
    C             B4
No desmantelo da tarde
   Bb            A4
A mala azul arrumada
  G       A       D
Que projetava a viagem
       C#4
Recomeçando das cinzas
 C                   B4
Vou recompondo a paisagem
 Bb                      A4
Lembro um flamboyant vermelho
 G        A       D    C#4    
No desmantelo da tarde

( D  C#4  D  C#4  D  C#4 )
( D  C#4  C  B4 )
( Bb  A4  G  A )
( D  C#4  C  B4 )
( Bb  A4  G  A )

[Solo]

E|-10-10h12p10-9--9h10p9-8--8h10p8-7--------|
B|------------------------------------------|
G|------------------------------------------|
D|------------------------------------------|
A|------------------------------------------|
E|------------------------------------------|

E|-7h8p7-6--6h8p6-5--3/5--5/10--------------|
B|-------------------3/5--5/10--------------|
G|------------------------------------------|
D|------------------------------------------|
A|------------------------------------------|
E|------------------------------------------|

E|-10-9-8-7--7h8p7-6--6h8p6-5--3/5--5/10----|
B|-----------------------------3/5--5/10----|
G|------------------------------------------|
D|------------------------------------------|
A|------------------------------------------|
E|------------------------------------------|

[Terceira Parte]

    D             C#4
E agora penso na réstia
    C           B4
Daquela luz amarela
          Bb        A4
Que escorria no telhado
        G     A      D
Pra dourar os olhos dela
       C#4
Recomeçando das cinzas
C                    B4
  Vou renascendo pra ela
    Bb            A4
E agora penso na réstia
    G    A      D    
Daquela luz amarela

( C#4  C  B4 )
( Bb  A4  G  A )
( D  C#4  C  B4 )
( Bb  A4  G  A )

[Solo]

E|-10-10h12p10-9--9h10p9-8--8h10p8-7--------|
B|------------------------------------------|
G|------------------------------------------|
D|------------------------------------------|
A|------------------------------------------|
E|------------------------------------------|

E|-7h8p7-6--6h8p6-5--3/5--5/10--------------|
B|-------------------3/5--5/10--------------|
G|------------------------------------------|
D|------------------------------------------|
A|------------------------------------------|
E|------------------------------------------|

E|-10-9-8-7--7h8p7-6--6h8p6-5--3/5--5/10----|
B|-----------------------------3/5--5/10----|
G|------------------------------------------|
D|------------------------------------------|
A|------------------------------------------|
E|------------------------------------------|

[Quarta Parte]

    D                   C#4
E agora penso que a estrada
    C              B4
Da vida tem ida e volta
         Bb         A4
Ninguém foge do destino
       G       A        D    C#4 
Esse trem que nos transporta

( D  C#4  D  C#4  D  C#4 )
( D  C#4  D  C#4 )
( D  C#4  D  C#4 )

 D               
Lê, lê, lê, lê, lê, lê, lê, lê
 C#4              
Lê, lê, lê, lê, lê, lê, lê, lê
 C
Lê, lê, lê, lê, lê, lê, lê, lê
 B4
Lê, lê, lê, lê, lê, lê, lê, lê
 Bb
Lê, lê, lê, lê, lê, lê, lê, lê
 A4  G  AD               
Lê, lê, lê, lê, lê, lê, lê, lê
 C#4              
Lê, lê, lê, lê, lê, lê, lê, lê
 C
Lê, lê, lê, lê, lê, lê, lê, lê
 B4
Lê, lê, lê, lê, lê, lê, lê, lê
 Bb
Lê, lê, lê, lê, lê, lê, lê, lê
 A4  G  A  
Lê

[Quarta Parte]

    D                   C#4
E agora penso que a estrada
    C              B4
Da vida tem ida e volta
         Bb         A4
Ninguém foge do destino
       G       A        D    C#4  D  C#4
Esse trem que nos transporta

[Final] D  C#4  D  C#4
        D  C#4  D  C#4
        D  C#4  D  C#4  D
Outros vídeos desta música
75.672 exibições
    • ½ Tom
    • A
    • Bb
    • B
    • C
    • Db
    • D
    • Eb
    • E
    • F
    • F#
    • G
    • Ab
  • Adicionar à lista

Afinação da cifra

Afinador online

    0 comentários

    Ver todos os comentários

    Entre para o Cifra Club PRO

    Tenha acesso a benefícios exclusivos no App e no Site

    • Chega de anúncios

    • Mais recursos no app do Afinador

    • Atendimento Prioritário

    • Aumente seu limite de lista

    • Ajude a produzir mais conteúdo

    Cifra Club Pro

    Aproveite o Cifra Club com benefícios exclusivos e sem anúncios
    Cifra Club Pro
    Aproveite o Cifra Club com benefícios exclusivos e sem anúncios
    OK