Cifra Club

Sete Desejos

Alceu Valença

Cifra: Principal (violão e guitarra)
exibições 56.940
Tom: Em
[Intro] D   C#4
        D   C#4
        D   C#4
        D  C#4  C  B4  Bb  A4  G  A  D
        D  C#4  C  B4  Bb  A4  G  A  D

E|--10-12p10-9--10p9-8--10p8-7--8p7-6--8p6-5--3-5--|
B|-------------------------------------------------|
G|-------------------------------------------------|
D|-------------------------------------------------|
A|-------------------------------------------------|
E|-------------------------------------------------|

  D             C#4
Recomeçando das cinzas
   C               B4
Eu faço versos tão claros
   Bb          A4
Projeto sete desejos
     G    A    D
Na fumaça do cigarro
            C#4             C
Eu penso na blusa branca de renda
            B4
Que dei pra ela
   Bb            A4
Na curva de suas ancas
G           A        D    C#4 
Quando escanchada na sela

( D  C#4 )

          D             C#4
Lembro um flamboyant vermelho
   C             B4
No desmantelo da tarde
  Bb            A4
A mala azul arrumada
G        A        D
Que projetava a viagem
      C#4
Recomeçando das cinzas
    C               B4
Vou recompondo a paisagem
Bb                      A4
Lembro um flamboyant vermelho
G        A       D       C#4    
No desmantelo da tarde

E|--10-12p10-9--10p9-8--10p8-7--8p7-6--8p6-5--3-5--|
B|-------------------------------------------------|
G|-------------------------------------------------|
D|-------------------------------------------------|
A|-------------------------------------------------|
E|-------------------------------------------------|

   D             C#4
E agora penso na réstia
  C            B4
Daquela luz amarela
      Bb          A4
Que escorria no telhado
       G      A     D
Pra dourar os olhos dela
       C#4
Recomeçando das cinzas
C                  B4
Vou renascendo pra ela
   Bb             A4
E agora penso na réstia
  G     A      D      C#4  C  B4  Bb  A4  G  A  D C#4  C  B4  Bb  A4  G  A  D
Daquela luz amarela

E|--10-12p10-9--10p9-8--10p8-7--8p7-6--8p6-5--3-5--|
B|-------------------------------------------------|
G|-------------------------------------------------|
D|-------------------------------------------------|
A|-------------------------------------------------|
E|-------------------------------------------------|

  D                   C#4
E agora penso que a estrada
   C              B4
Da vida tem ida e volta
        Bb         A4
Ninguém foge do destino
     G        A        D     C#4 (6x)(D C#4) (2x)(D  C#4  C  B4  Bb  A4  G  A  D)
Esse trem que nos transporta


E|-----------------------|-----------------------|
B|-----------------------|-----------7-10-9-7----|
G|----6/7-6--------------|-----6/7-9----------7--|
D|--7-------9-7---6/7-7--|---7-------------------|
A|--------------9--------|-----------------------|
E|-----------------------|-----------------------|

Lê, lê, lê,  lê, lê, lê, lê, lê, lê, lê, lê, lê, lê, lê, lê, lê, lê, lê, lê, lê, lê, lê, lê, lê,

E|----------------------------------------------|
B|----------------------------------------------|
G|--12(8x)-11(8x)-10(8x)-9(8x)-8(8x)-7(8x)-5-7--|
D|----------------------------------------------|
A|----------------------------------------------|
E|----------------------------------------------|

   D                  C#4
E agora penso que a estrada
   C              B4
Da vida tem ida e volta
        Bb         A4
Ninguém foge do destino
     G        A        D      C#4 D  C#4
Esse trem que nos transporta

E|-----------------------|-----------------------|
B|-----------------------|-----------7-10-9-7----|
G|----6/7-6--------------|-----6/7-9----------7--|
D|--7-------9-7---6/7-7--|---7-------------------|
A|--------------9--------|-----------------------|
E|-----------------------|-----------------------|

E|-----------------------|-----------------------|
B|-----------------------|-----------7-10-9-7----|
G|----6/7-6--------------|-----6/7-9----------7--|
D|--7-------9-7---6/7-7--|---7-------------------|
A|--------------9--------|-----------------------|
E|-----------------------|-----------------------|
Acordes para:
    Composição: Alçeu Valença Colaboração e revisão:

    0 comentários

    mostrar mais comentários

    Conseguiu tocar?

    5 tocaram 0 ainda não

    Grave um vídeo tocando Sete Desejos e mande pra gente!

    00:00 / 00:00
    outros vídeos desta música
    repetir qualidade Automático
    Outros vídeos desta música
    00:00 / 00:00
    Automático
    OK