Cifra Club

Tesoura do Desejo

Alceu Valença

Cifra: Principal (violão e guitarra)
tom: E
[Intro] A  F7M  A  F7M
        A  F7M  A  F7M

Solo

E|-----10/12--10-9-----|-----------10/12-10-9------------|
B|--10-------------10--|--10-12-10------------10---------|
G|---------------------|---------------------------------|
D|---------------------|---------------------------------|
A|---------------------|---------------------------------|
E|---------------------|---------------------------------|

E|------------------------|------------------------------|
B|--------10-12-10-12/14--|----------10-12-10-10---------|
G|--14\10-----------------|---14\10----------------------|
D|------------------------|------------------------------|
A|------------------------|------------------------------|
E|------------------------|------------------------------|

E|------------------9h10p9--|----------------------------|
B|--------10-12-10----------|----------------------9/10--|
G|--14\10-------------------|---14\10--10-9--------------|
D|--------------------------|---------------12-11--------|
A|--------------------------|----------------------------|
E|--------------------------|----------------------------|

[Primeira Parte] 

   F7M
Você atravessando aquela
                A
Rua vestida de negro
  F7M
E eu te esperando em frente
                    A
A um certo bar, Leblon
   F#m
Você se aproximando

E eu morrendo de medo
  B
Ali, bem mesmo em frente
                    A
A um certo bar, Leblon

( A  F7M  A  F7M )
( A  F7M  A  F7M )

[Segunda Parte] 

       F7M                                   A
Quando eu atravessava aquela rua, morria de medo
    F7M                                        A
De ver o teu sorriso e começar um velho sonho bom
     F#m
E o sonho fatalmente viraria pesadelo
  B                                          A
Ali, bem mesmo em frente a um certo bar, Leblon

( A  F7M  A  F7M )
( A  F7M  A  F7M )

[Refrão] 

          F7M            A
Vamos entrar, não tenho tempo
             F7M                A
O que é que houve? O que é que há?
             F#m
O que é que houve, meu amor

Você cortou os seus cabelos?
         B
Foi a tesoura do desejo
                   A
Desejo mesmo de mudar

( A  F7M  A  F7M )

Solo

E|-------------------------|------------------------|
B|-------------------------|-----8b10r8-6-----------|
G|---------9-7-6---6/7\6---|--------------9---------|
D|--7-7-7--------9---------|--7---------------------|
A|-------------------------|------------------------|
E|-------------------------|------------------------|

[Refrão] 

          F7M            A
Vamos entrar, não tenho tempo
             F7M               A
O que é que houve? O que é que há?
             F#m
O que é que houve, meu amor

Você cortou os seus cabelos?
         B
Foi a tesoura do desejo
                   A
Desejo mesmo de mudar

E|-------------------------|------------------------|
B|-------------------------|-----8b10r8-6-----------|
G|---------9-7-6---6/7\6---|--------------9---------|
D|--7-7-7--------9---------|--7---------------------|
A|-------------------------|------------------------|
E|-------------------------|------------------------|

[Final] A  F7M  A  F7M
        A  F7M  A  F7M
00:00 / 00:00
Outros vídeos desta música
Repetir
Outros vídeos desta música
Composição de Alçeu Valença
Colaboração e revisão:
98.628 exibições
    • ½ Tom
    • A
    • Bb
    • B
    • C
    • Db
    • D
    • Eb
    • E
    • F
    • F#
    • G
    • Ab
  • Adicionar à lista

    0 comentários

    Ver todos os comentários

    Entre para oCifra Club PRO

    Tenha acesso a benefícios exclusivos no App e no Site

    • Chega de anúncios

    • Prioridade de compra em lançamentos

    • Mais recursos no app do Afinador

    • Atendimento Prioritário

    • Descontos nos produtos Cifra Club

    • Ajude a produzir mais conteúdo

    00:00 / 00:00

    Cifra Club Pro

    Aproveite o Cifra Club com benefícios exclusivos e sem anúncios
    Cifra Club Pro
    Aproveite o Cifra Club com benefícios exclusivos e sem anúncios
    OK