Cifra Club

Aprenda

Afundado

Aldo Sena

Cifra: Principal (violão e guitarra)
tom: G
[Intro] G  D

[Solo Baixo]

D|------------------------------------|
A|---2-5----2--5----3-5---3-5/7-5-----|
E|--3-----3--------5----5-------------|

E|-----3---5-2----------------3----5-2------------|
B|----3--5----3------3-------3--5-----3-----------|
G|---4----5-----5-4-5-------4----5------5-4-2-0---| (2x)
D|--5----------------------5----------------------|
A|------------------------------------------------|
E|------------------------------------------------|

E|--7---5---3---2--0---------------------2-3-2-5-2-------------|
B|---7---5---3----1-1---1-0-1-3-------3-5---------3--3---------|
G|-------------------2----------0-234-----------------5-4-2-0--| (2x)
D|-------------------------------------------------------------|
A|-------------------------------------------------------------|
E|-------------------------------------------------------------|

E|-----3---5-2----------------3----5-2------------|
B|----3--5----3------3-------3--5-----3-----------|
G|---4----5-----5-4-5-------4----5------5-4-2-0---| (2x)
D|--5----------------------5----------------------|
A|------------------------------------------------|
E|------------------------------------------------|

E|------7----------------5-----------|
B|---8-8-8------------7-7-7----------|
G|--7-7-----7h9-7----7-7-----7h9-7---| (4x)
D|-----------------------------------|
A|-----------------------------------|
E|-----------------------------------|

E|--------------------------------------|
B|----5-3-------5-3------7-5------7-5---|
G|---4---------4--------5--------5------| (4x)
D|--5----5----5--------7----7---7-------|
A|--------------------------------------|
E|--------------------------------------|

E|-----3---5-2----------------3----5-2------------|
B|----3--5----3------3-------3--5-----3-----------|
G|---4----5-----5-4-5-------4----5------5-4-2-0---| (2x)
D|--5----------------------5----------------------|
A|------------------------------------------------|
E|------------------------------------------------|

E|--7---5---3---2--0---------------------2-3-2-5-2-------------|
B|---7---5---3----1-1---1-0-1-3-------3-5---------3--3---------|
G|-------------------2----------0-234-----------------5-4-2-0--| (2x)
D|-------------------------------------------------------------|
A|-------------------------------------------------------------|
E|-------------------------------------------------------------|

E|------7----------------5-----------|
B|---8-8-8------------7-7-7----------|
G|--7-7-----7h9-7----7-7-----7h9-7---| (4x)
D|-----------------------------------|
A|-----------------------------------|
E|-----------------------------------|

( G  D )

E|-----3---5-2----------------3----5-2------------|
B|----3--5----3------3-------3--5-----3-----------|
G|---4----5-----5-4-5-------4----5------5-4-2-0---| (2x)
D|--5----------------------5----------------------|
A|------------------------------------------------|
E|------------------------------------------------|

E|--7---5---3---2--0---------------------2-3-2-5-2-------------|
B|---7---5---3----1-1---1-0-1-3-------3-5---------3--3---------|
G|-------------------2----------0-234-----------------5-4-2-0--| (2x)
D|-------------------------------------------------------------|
A|-------------------------------------------------------------|
E|-------------------------------------------------------------|

E|------7----------------5-----------|
B|---8-8-8------------7-7-7----------|
G|--7-7-----7h9-7----7-7-----7h9-7---| (4x)
D|-----------------------------------|
A|-----------------------------------|
E|-----------------------------------|

E|--------------------------------------|
B|----5-3-------5-3------7-5------7-5---|
G|---4---------4--------5--------5------| (8x)
D|--5----5----5--------7----7---7-------|
A|--------------------------------------|
E|--------------------------------------|
Composição de Aldo Sena / Curica / Vieira
Colaboração e revisão:
  • Mauricio Pimentel
  • Gleno Silva
9.850 exibições
    • ½ Tom
    • A
    • Bb
    • B
    • C
    • Db
    • D
    • Eb
    • E
    • F
    • F#
    • G
    • Ab
  • Adicionar à lista

    0 comentários

    Ver todos os comentários

    Conseguiu tocar?

    3 Tocaram 0 Ainda não

    Grave um vídeo tocando Afundado e nos envie!

    00:00 / 00:00
    outros vídeos desta música
    repetir qualidade Automático
    Outros vídeos desta música
    00:00 / 00:00
    Automático

    Cifra Club Pro

    Aproveite o Cifra Club com benefícios exclusivos e sem anúncios
    Cifra Club Pro
    Aproveite o Cifra Club com benefícios exclusivos e sem anúncios
    OK