Cifra Club

Poison Intro

Alice Cooper

Cifra: Principal (violão e guitarra)
tom: G
Intro.: 
E|----------------------------------------------------- --------------------------
B|---------------------------------------------- ---------------------------------
G|-------------------9---------7-------------------5-----------5----------------
D|--7-7-----7------------------------------4--5-------4--5----------4--5------
A|--5-5---------5--------5---------5--------------------------------------------
E|--------------------------------------------------------------------------------

--------------------------------------------------------------------------------------:
--------------------------------------------------------------------------------------:
----------------------------------9--------7-----------------9---------7------------:
-7-7-----7---------------------------7-------------------------7-------------------:
-5-5---------5--------5--------5--------5--------5--------5-----------------------:
--------------------------------------------------------------------------------------:
00:00 / 00:00
Outros vídeos desta música
Repetir
Outros vídeos desta música
Compositor não encontrado.
Colaboração e revisão:
  • Anna Gabriella
3.879 exibições
    • ½ Tom
    • A
    • Bb
    • B
    • C
    • Db
    • D
    • Eb
    • E
    • F
    • F#
    • G
    • Ab
  • Adicionar à lista

    0 comentários

    Ver todos os comentários

    Conseguiu tocar?

    0 Tocaram 0 Ainda não

    Grave um vídeo tocando Poison Intro e nos envie!

    Entre para oCifra Club PRO

    Tenha acesso a benefícios exclusivos no App e no Site

    • Chega de anúncios

    • Prioridade de compra em lançamentos

    • Mais recursos no app do Afinador

    • Atendimento Prioritário

    • Descontos nos produtos Cifra Club

    • Ajude a produzir mais conteúdo

    00:00 / 00:00

    Cifra Club Pro

    Aproveite o Cifra Club com benefícios exclusivos e sem anúncios
    Cifra Club Pro
    Aproveite o Cifra Club com benefícios exclusivos e sem anúncios
    OK