Cifra Club

Steven

Alice Cooper

Cifra: Principal (violão e guitarra)
Selo Cifra Club: esta cifra foi revisada para atender aos critérios oficiais da nossa Equipe de Qualidade.
tom: C
E|----12----12----12----12--|
B|-------15----13----12-----|
G|-14-----------------------| repeat
D|--------------------------|
A|--------------------------|
E|--------------------------|

2:07
Rhythm Guitar
E|--------------------------------------|
B|--------------------------------------|
G|--------------------------------------|
D|--------------------------------------|
A|--------------------------------------|
E|-0-5~~~---5\-0~~~---0-5~~~---5\-0~~~--|

E|--------------------------------------------------------------|
B|--------------------------------------------------------------|
G|--------------------------------------------------------------|
D|-----------2--------------------------------------------------|
A|-------2-3---5---3-2---------2-5-3---2-------------3-2~~/-----|
E|-0-5-----------------5-3---5-----------5-3-1---3-5---------0--|

2:59
Rhythm Guitar
E|----------------------------|
B|----------------------------|
G|----------------------------|
D|----------------------------|
A|----------------------------|
E|-5~~---5~~---5~~---5\-0~~~--|

3:13
Lead Guitar
E|-12--12-12-----------13~~-------15-----12----------------------------|
B|------------15-13-15----------------15------15--14-13--13-13---------|
G|---------------------------/12-------------------------------14-14---|
D|-------------------------------------------------------------------15|
A|---------------------------------------------------------------------|
E|---------------------------------------------------------------------|

E|--------------------|
B|-----------13-12~~--|
G|--------14----------|
D|-15--15-------------|
A|--------------------|
E|--------------------|

Rhythm Guitar
E|---------------------------------------------------------|
B|---------------------------------------------------------|
G|---------------------------------------------------------|
D|---------2-----------------------------------------------|
A|-----2-3---5---3-2---------2-5-3---3-2-----------3-2-----|
E|-5-----------------5-3---3-------------5-1---1-5------0--|

“I don't want to feel you die
But if that's the way that God has planned you
I'll put pennies on your eyes
And it will go away
See?”
Lead Guitar
E|----------------12------------------12-----------------------12----|
B|-------12-13-15------------12-13-15------15-13-12------12-13----15-|
G|-14------------------14---------------------------14---------------|
D|-------------------------------------------------------------------|
A|-------------------------------------------------------------------|
E|-------------------------------------------------------------------|

E|------------------------------------------|
B|-13-12------------12-15-13---13-12--------|
G|-------14-12---14------------------14-----|
D|--------------------------------------15--|
A|------------------------------------------|
E|------------------------------------------|
Outros vídeos desta música
    45 exibições
      • ½ Tom
      • A
      • Bb
      • B
      • C
      • Db
      • D
      • Eb
      • E
      • F
      • F#
      • G
      • Ab
    • Adicionar à lista

    Afinação da cifra

    Afinador online

      0 comentários

      Ver todos os comentários

      Entre para o Cifra Club PRO

      Tenha acesso a benefícios exclusivos no App e no Site

      • Chega de anúncios

      • Badges exclusivas

      • Mais recursos no app do Afinador

      • Atendimento Prioritário

      • Aumente seu limite de lista

      • Ajude a produzir mais conteúdo

      Cifra Club Pro

      Aproveite o Cifra Club com benefícios exclusivos e sem anúncios
      Cifra Club Pro
      Aproveite o Cifra Club com benefícios exclusivos e sem anúncios
      Ops (: Contenido disponible sólo en portugués.
      OK