Cifra Club

Aprenda

Acid Bubble

Alice In Chains

Cifra: Principal (violão e guitarra)
tom: F#
Intro
Eb|-----------------------------------------------------------------|
Bb|-----------------------------------------------------------------|
Gb|-----------------------------------------------------------------|
Db|--------2-------2---------------0-------2-------2-----------0----|
Ab|------2-------2-----------0-2-3-------2-------2---------0-2---3--|
Db|--2---------2-------1-2-3---------2---------2-----1-2-3----------|
                                                                       2x
Eb|-----------------------------------------------------------------|
Bb|-----------------------------------------------------------------|
Gb|-----------------------------------------------------------------|
Db|--------2-------2---------------0-------2-------2-----------0-2--|
Ab|------2-------2-----------0-2-3-------2-------2---------0-2------|
Db|--2---------2-------1-2-3---------2---------2-----1-2-3----------|

Verse
Eb|-----------------------------------------------------------------|
Bb|-----------------------------------------------------------------|
Gb|-----------------------------------------------------------------|
Db|--------2-------2---------------0-------2-------2-----------0----|
Ab|------2-------2-----------0-2-3-------2-------2---------0-2---3--|
Db|--2---------2-------1-2-3---------2---------2-----1-2-3----------|

Eb|-----------------------------------------------------------------|
Bb|-----------------------------------------------------------------|
Gb|-----------------------------------------------------------------|
Db|--------2-------2---------------0-------2-------2-----------0-2--|
Ab|------2-------2-----------0-2-3-------2-------2---------0-2------|
Db|--2---------2-------1-2-3---------2---------2-----1-2-3----------|

Eb|-----------------------------------------------------------------|
Bb|-----------------------------------------------------------------|
Gb|-----------------------------------------------------------------|
Db|--------2-------2---------------0-------2-------2-----------0----|
Ab|------2-------2-----------0-2-3-------2-------2---------0-2---3--|
Db|--2---------2-------1-2-3---------2---------2-----1-2-3----------|

Eb|-----------------------------------------------------------------|
Bb|-----------------------------------------------------------------|
Gb|-----------------------------------------------------------------|
Db|--------2-------2---------------0-------2-------2-------3-2-0----|
Ab|------2-------2-----------0-2-3-------2-------2---------------3--|
Db|--2---------2-------1-2-3---------2---------2-----1-2-3----------|

Pre-Chorus
Eb|-------------------------------------|
Bb|--------3---3-----------0---0--------|
Gb|------0-------0-------0-------0------|
Db|----4-----------4---4-----------4----|  4x
Ab|--2---------------2---------------2--|
Db|-------------------------------------|

Eb|-----------------------------------|
Bb|-----------------------------------|
Gb|--------6b7---6-0-------3b4---3-0--|
Db|------5---------------2------------|
Ab|----5---------------2--------------|
Db|--5---------------2----------------|

Eb|-------------------------------------|
Bb|--------3---3-----------0---0--------|
Gb|------0-------0-------0-------0------|
Db|----4-----------4---4-----------4----|
Ab|--2---------------2---------------2--|
Db|-------------------------------------|

Eb|-----------------------------------|
Bb|-----------------------------------|
Gb|--------6b7---6-0-------3b4---3-0--|
Db|------5---------------2------------|
Ab|----5---------------2--------------|
Db|--5---------------2----------------|

Chorus
Eb|------2-----0----------------------|
Bb|------------------3----------------|
Gb|------------------------4---4------|
Db|----4-----4-----4-----4---------0--|  3x
Ab|--2-----0--------------------------|
Db|--------------2-----2-----2---0----|

Eb|-----------------------------------|
Bb|-----------------------------------|
Gb|--------6b7---6-0-------3b4---3-0--|
Db|------5---------------2------------|
Ab|----5---------------2--------------|
Db|--5---------------2----------------|

Post-Chorus
Eb|--------------------------|
Bb|------0------0------------|
Gb|------------------7*------|
Db|----4------4--------------|  8x
Ab|--2-----/5-----/8---------|
Db|--------------------------|

Bridge
Eb|----------------------------------------------|
Bb|----------------------------------------------|
Gb|----------------------------------------------|
Db|----------------------------------------------|  8x
Ab|----------------------------------------0-1---|
Db|--2--2--0-2-2--2--0-2-3--2--0-2-3-2-0-2-------|


Intro
Verse
Pre-Chorus
Chorus 2x


Guitar Solo
Eb|--17b19---14h17p14----14------------------------------------------------------------|
Bb|-------------------15----14---------------------------------------------------------|
Gb|-----------------------------16--14-------------------------------------------------|
Db|-------------------------------------16--14--12------12--14--14b15-12----12---------|
Ab|-------------------------------------------------14-------------------14----14-12~--|
Db|------------------------------------------------------------------------------------|

Eb|--------------------------------------------------------|
Bb|--------------------------------------------------------|
Gb|------------------------------------------------14~-----|
Db|-------12h14p12-14b15-14b15---14b15r14p12-14/16---------|
Ab|--12h14-------------------------------------------------|
Db|--------------------------------------------------------|

Eb|--------------------------------------------------------------|
Bb|------------14----15----17----19----17----15----14b15r14~-----|
Gb|--14-/16-16----16----16----16----16----16----16---------------|
Db|--------------------------------------------------------------|
Ab|--------------------------------------------------------------|
Db|--------------------------------------------------------------|

Outro
Eb|----------------------------------------------|
Bb|----------------------------------------------|
Gb|----------------------------------------------|
Db|----------------------------------------------|  8x
Ab|----------------------------------------0-1---|
Db|--2--2--0-2-2--2--0-2-3--2--0-2-3-2-0-2-------|


Note: The second guitar plays a slight bend on the 2nd fret of the sixth string
the verses.


| /  slide up
| \  slide down
| b  bend
| h  hammer-on
| p  pull-off
| ~  vibrato
| *  natural harmonic
===============================================================================
Composição de Jerry Cantrell
3.177 exibições
    • ½ Tom
    • A
    • Bb
    • B
    • C
    • Db
    • D
    • Eb
    • E
    • F
    • F#
    • G
    • Ab
  • Adicionar à lista

    0 comentários

    Ver todos os comentários

    Conseguiu tocar?

    2 Tocaram 0 Ainda não

    Grave um vídeo tocando Acid Bubble e nos envie!

    00:00 / 00:00
    outros vídeos desta música
    repetir qualidade Automático
    Outros vídeos desta música
    00:00 / 00:00
    Automático

    Cifra Club Pro

    Aproveite o Cifra Club com benefícios exclusivos e sem anúncios
    Cifra Club Pro
    Aproveite o Cifra Club com benefícios exclusivos e sem anúncios
    OK