Cifra Club

Born Again

Alice In Chains

Cifra: Principal (violão e guitarra)
Tom: F
(intro & verse)

D |------------------------------------------------------------|-
A |------------------------------------------------------------|-
G |------------------------------------------------------------|-
D |------0-------------------0-------------------0-------------|-
A |---12---12----12-------12---12----12-------12---12----12----|-
D |12---------12----12-13---------12----12-15---------12----12-|-

D |----------------------|-
A |----------------------|-
G |----------------------|-
D |------0----------0----|-
A |---13---13----13---13-|-
D |13---------13---------|-

(moaning & screaming part - distortion)
D |-----------------------|-
A |-----------------------|-
G |-----------------------|-
A |0-10-5-6-7--0-10-5-6-1-|-
D |0-10-5-6-7--0-10-5-6-1-|-
D |0-10-5-6-7--0-10-5-6-1-|-

(slow solo)
   harm-------
D |---12-----------------------------------------------------|-
A |12----12--------------------------------------------------|-
G |---------12-10-12-12^-12-10-12-10-9-9h109-----------------|-
D |------------------------------------------10-12-12^-12-10-|-
A |----------------------------------------------------------|-
D |----------------------------------------------------------|-

D |---------------|-
A |---------------|-
G |---------------|-
A |---------------|-
d|10s12~~~~------|-
D |---------------|-
exibições 1.266
Acordes para:

    0 comentários

    mostrar mais comentários

    Conseguiu tocar?

    0 tocaram 0 ainda não

    Grave um vídeo tocando Born Again e mande pra gente!

    00:00 / 00:00
    outros vídeos desta música
    repetir qualidade Automático
    Outros vídeos desta música
    00:00 / 00:00
    Automático
    OK